Song name
# A B C D E F G H I J K L M N O P Q R S T U V W X Y Z

John Frusciante - Untitled 11 tab

John Frusciante
Untitled #11
Niandra and Usually Just A T-Shirt


Listen to song for strumming pattern

Standard Tuning, E-A-D-G-B-E

E-5--------6------------5----------8---------3-----------10--------5---------|
B-5--------6------------6---------10---------5-----------11--------6---------|
G-5--------6------------7---------10---------5-----------12--------7---------|
D-7--------8------------7---------10---------5-----------12--------7---------|
A-7--------8------------5----------8---------3-----------10--------5---------|
E-5--------6-----------------------------------------------------------------|
sold a   hole to a  disaster  -- nail the strong winds tied to a door

E-5----------6-------------5----------------8-----3----10-----------5--------|
B-5----------6-------------6---------------10-----5----11-----------6--------|
G-5----------6-------------7---------------10-----5----12-----------7--------|
D-7----------8-------------7---------------10-----5----12-----------7--------|
A-7----------8-------------5----------------8-----3----10-----------5--------|
E-5----------6---------------------------------------------------------------|
know the crimes that stick in through -- un-fastened belts on your heart

E--------3------1---------5-----------------------------------------------6--|
B--------3------2---------6--------------------------------------6--------7--|
G--------5------3---------7----------------3---------------------7-----3--7--|
D--------5------3---------7----------------5---------------------7-----5--5--|
A--------3------1---------5----------------5---------------------5-----5-----|
E------------------------------------------3---------------------------3-----|
and i've never been very smart -- but i connect you with your shadow

Any questions or fixes, email thatsbentastic@gmail.com!
Tap to rate this tab
 
# A B C D E F G H I J K L M N O P Q R S T U V W X Y Z