Song name
# A B C D E F G H I J K L M N O P Q R S T U V W X Y Z

John Frusciante - Performance 2 Jam tab

Song:Performance #2 (jam)
By:John Frusciante & Josh Klinghoffer.

You can watch the bit I'm tabbing here
http://www.youtube.com/watch?v=cqpqwvc2EMU

This isnt perfect but I think its close, and it's not the whole jam just part of it

Have Fun!!


e|---------------------------------------------------------------------------|
B|--------15-----------------------------------------------------------------|
G|-----------14-12-12---X2---------------------------------------------------|
D|-12h14-------------------12-12h14-12-12-12-12h14---------------------------|
A|---------------------------------------------------------------------------|
E|---------------------------------------------------------------------------|

e|----------------------------------------------------------------------19---|
B|----------15---------------17-17-17-17-19-15------------on the--15-15------|
G|-12-12-12----14-12--x4-----------------------16-16--x4--last---------------|
D|--------------------------------------------------------time---------------|
A|--------------------------------------------------------play:--------------|
E|---------------------------------------------------------------------------|

Thats all ive got so far, as i have said its not perfect so if you can improve it please 
a comment :D
Tap to rate this tab
# A B C D E F G H I J K L M N O P Q R S T U V W X Y Z