Song name
# A B C D E F G H I J K L M N O P Q R S T U V W X Y Z

John Frusciante - Innerstate Sex tab

it's very easy

verse

Am                       G
Being in line is a dream I'm after....

chorus

C      G      Am   F
I'll be your cind aviator....

bridge

Am   C

Em    F    C
Em    F    Am

solo

Em    F    Am    C(at 8fret)

solo:

e-------------------------------------------------------|
b---10--8--10-----10--8--10-----10--8--10---------------|
g--------------9-------------9-------------9--7--9------|
D--------------------------------------------------10---|
A-------------------------------------------------------|
E-------------------------------------------------------|

e---17--15--17------17--15--17------17--15--17-------------------------------|
b---------------17--------------17--------------17--15--17-------------------|
g-----------------------------------------------------------17-16-----14-----|
D------------------------------------------------------------------17--------|
A----------------------------------------------------------------------------|
E----------------------------------------------------------------------------|
Tap to rate this tab
# A B C D E F G H I J K L M N O P Q R S T U V W X Y Z