Song name
# A B C D E F G H I J K L M N O P Q R S T U V W X Y Z

John Frusciante - The Last Hymn tab

Gtr I
|-0-1-0-||------3-----3---1-|-----3-----3-------1--||-1--0-|----|
|-0-1-0-||o---3-----3-----2-|---3-----3-----3-----o||-1--0-|----|
|-0-2-2-||----------------3-|-----------------2----||-2--0-|----|
|-2-3-2-||--3-----2-----0-0-|-3-----2-----0--------||-3--2-|----|
|-2-3-2-||o-----------------|---------------------o||-3--2-|----|
|-0-1-0-||------------------|----------------------||-1--0-|----|


|-2-5-||--------10------8---7---||--7--|---8--|----|
|-4-4-||o----12------10-----8-o-||--7--|---8--|----|
|-4-4-||--------------------9---||--8--|---9--|----|
|-4-4-||--------------------9---||--9--|--10--|----|
|-2-2-||o-10-------9------7-7-o-||--9--|--10--|----|
|-----||------------------------||--7--|---8--|----|
Tap to rate this tab
# A B C D E F G H I J K L M N O P Q R S T U V W X Y Z