Song name
# A B C D E F G H I J K L M N O P Q R S T U V W X Y Z

John Frusciante - Dying Song tab

These are the chords John uses:
A#m  Fm   F#   F7    F   D#m   C#  G#
------1----2----1----1--------------8--|
-2----1----2----1----1----7----6----9--|
-3----1----3----2----2----8----6----8--|
-3----3----4----1----3----8----6----6--|
-1----3----4----3----3----6----4-------|
------1----2----1----1-----------------|

Verse:

A#m             Fm  F#
Im goin' away forever
A#m             Fm  F#
Im goin' away forever
D#m           F7       A#m
Never comin' back this way
D#m           F7           A#m
Never comin' back to this place


D#      G#7/F   Bm
-------------8-----------|
-----7-------7----2------|
-----8-----8------3------| x2
---8--------------3------|
-6-------8--------1------|
-------------------------|

Verse:

A#m              Fm  F#
What I need is a heaven
A#m                     Fm  F#
What I really need is a heaven
D#m                 F7           A#m
A place to go where I can really be
D#m                 F7            F#   F
A place to go where I can really be----
F#  F                  F#  Fm
    Where i can really be----

------------8------------|
-----7------7------------|
-----8------8------------|
---8---------------------|
-6-----6----8------------|
-------------------------|


Verse:

A#m                              Fm  F#
Dreamin' my life away counts for nothin'
A#m                              Fm  F#
Dreamin' my life away counts for nothin'
D#m              F7     A#m
But nothin' ever is the end
D#m             F7     A#m  C#  G#  D#m  < Start playing these notes serperatly


A#m  C#  G#  D#m


A#m                   C#       G#  D#m
It's sure been a full life for me baby
A#m                   C#       G#  D#m
It's sure been a full life for me yeah
A#m                   F#       C#  G#
It's sure been a full life for me baby

x3


D#m              F7            A#m
It's sure been a full life for me
No nothing ever is the end
Tap to rate this tab
# A B C D E F G H I J K L M N O P Q R S T U V W X Y Z