Song name
# A B C D E F G H I J K L M N O P Q R S T U V W X Y Z

John Frusciante - Untitled 7 tab

Untitled #7


    F#m            N.C.     A              Dmaj7
|---------2------------------------------------------2---|
|-------2-------------------------2--------------2-------|
|o----2------------------2------2------------2----------o|
|o--4--------4-------2--------2------2-0-x-0---0---0----o|
|--------------0-x-0---0----0----------------------------|
|--------------------------------------------------------|

solo guitar 1:
e|----------------------------------------10-12--10-9-7--------------------|
B|-9---9--(9)p7--9h10p9h7-------------------------------10-9-7-5-----------|
G|---9---------------------9-7-6--9-6-9-6------------------------7-6-4h6---|
D|-------------------------------------------------------------------------|
A|-------------------------------------------------------------------------|
E|-------------------------------------------------------------------------|

e|-10--10/12--14-17-16------------------9----9----9---------/9----9-------|
B|---------------------17--14-17-14---10---10---9-----10---12/14---7h9p7--|
G|--------------------------------------------------9---------------------|
D|------------------------------------------------------------------------|
A|------------------------------------------------------------------------|
E|------------------------------------------------------------------------|

e|-/9----9-12-9----(9)-(9)--9h7-9/14--12----12--10------------------|
B|----10--------------------------------------------10--------------|
G|-----------------------------------------------------9------------|
D|-------------------------------------------------------11---------|
A|------------------------------------------------------------------|
E|------------------------------------------------------------------|
Tap to rate this tab
# A B C D E F G H I J K L M N O P Q R S T U V W X Y Z