Song name
# A B C D E F G H I J K L M N O P Q R S T U V W X Y Z

John Frusciante - Untitled 8 tab

---11---11----11---11------11---11------------------------------------------|
---------------------------------------11----11-----------------11----11----|
----------------------------------------------------------------------------|
------------------------------------------------------8---8-----------------|
-9----9-----8----8----8-----------------------------------------------------|
-------------------------9----9-----11----11----11--6---6----11----11----11-|

---------------------------------------|--------------|--|------------------|
-------------11----11------------------|---------b14--|--|------------------|
---------------------------------------|--------------|--|----13-13-13------|
---8---8-------------------------------|------13------|--|------------------|
---------------------------------------|--------------|--|------------------|
-6---6----11----11----11---------------|---14---------|--|-11----------9-11-|

---------------------------|------------------------------------------------|
---------------------------|------------------------------------------------|
--13-----12------12----11--|-------------9---------------------12-------12--|
---------11------11----10--|------11-10----10---------------11-------11-----|
---------------------------|-----------------------------13-------13--------|
-----11-------11-----------|--11------------------9--11---------------------|

---------------------------------------------------------------------|------|
---------------------------------------------------------------------|------|
-------12-------12-------12------12------12------12------12------12--|------|
----11-------11-------11------11------11------11------11------11-----|------|
-13-------13-------13------13------13------13------13------13--------|------|
---------------------------------------------------------------------|------|

--------------------------------------------|-------------------------------|
------------------------------11-9----------|--------------------16-14------|
--------10-------13--------11------10--9-10-|--------10-------13------------|
-----10-------10--------10------------------|-----10-------12---------------|
-/12-------11--------/9---------------------|-/12-------13------------------|
--------------------------------------------|-------------------------------|

----------------------------------------------------------------------------|
-11-9-11------------11-------11-------11-------11------9------9------7----7-|
---------11-----------------------------------------------------------------|
-------------10--11----10-11----10-11----10-11----9-10---9-10----8-9---8-9--|
----------------------------------------------------------------------------|
----------------------------------------------------------------------------|

------------------------------------------------------------------------0---|
-----7-----2-----2-----2-----2-----2------8-----5-----2-----2-----------2---|
---------------------------------------------------------------------3------|
-8-9---3-4---3-4---3-4---3-4---3-4---9-10---7-8---4-5---4-5---5-----------3-|
------------------------------------------------------------------1---------|
----------------------------------------------------------------------------|

-----2---|---------11---11---11----8----------------------------------------|
---------|-----9-----------------------9----9-------9----9-------9----9-----|
---3---3-|-----------------------------10-----10----10---10------10---10----|
-1-------|------------------------------------------------------------------|
---------|-7/8---8----8----8----8----9----9-------8----8----8--7----7----7--|
---------|------------------------------------------------------------------|

---------------------------------------------------------9----9------11--11-|
---9----9-------10---10------9----9--------11----11------10----10----12--12-|
---10---10------11---11------10---10-------12------12-----------------------|
-------------------------------------------------------8----8------9----9---|
-8----8----8---------------8----8----8--------------------------------------|
--------------9----9----9---------------10----10----------------------------|

----------------------------------------------------------------------------|
-------------------------------------------------8-8-----------8-8----------|
---11-11/12\8----8---8-----7---7------8---8-8-----------8-8-----------8-8---|
---12-12----9---------------------------8--8---8------8--8---8------8--8----|
-9-------------9---9---9/8---8---8------------------------------------------|
----------------------------------------------------------------------------|

----------------------|------------------------------0----------------------|
----------------------|-------9--------9-----------9----------9-------------|
----------------------|------------------9b----------9b--------9b--------9b-|
---11-11--------------|-9-b11----9-b11-------9-b11-------9-b11-----9-b11----|
-9--------11----------|-----------------------------------------------------|
----------------------|-----------------------------------------------------|

-13b------------------------------11----------------------------------|-----|
---------------12/13----------13-----13--------12b-11/13b-13\---------|-----|
------------13-------------13-----------------------------------------|-----|
------13p11----------13p11---------------13p11------------------13----|-----|
----------------------------------------------------------------------|-----|
----------------------------------------------------------------------|-----|

--------------------------1--------------6---1---4b---4-------------------1-|
----------------4----4--------------4---------------6---6--4b---------------|
-1----3----1----3--------------3----3-------------------------5b------------|
----------------------------------------------------------------------------|
------------------------------------------------------------------1---0h1-1-|
--------------------------------------------------------------------1-------|

--1--1--1--------------------------------------------------------------------|
--------------4---4-4---6-------4-----6-----4-----6-----4-----6---4----6--4--|
-----------------------------------------------------------------------------|
-----------------------------------------------------------------------------|
---1-----5-3----3-----------5-3---3-------3---3-------3---3-----3---3----3---|
-------3--------------3---3---------3---3-------3---3-------3---------3------|

-------6---------------------------------------------------8---11-------13--|
-----6------4-----6-----4--------6---4-----6-------4-----------------10-----|
-------------------------------------------------------7/8---8----12--------|
----------------------------------------------------------------------------|
-3--------3---3-------3---3---/3---3---3-----3h4-3--------------------------|
---3------------3---3-------2------------3----------------------------------|

-------16-------16/18--|----1-----------------------------------------8-----|
-14/15----14/15--------|----1-------------------------------2---------8-----|
-----------------------|---------3----2----3----2----3------2----3----------|
-----------------------|---------3----2----3----2----3-----------3----------|
-----------------------|-------1---------1---------1----2h3----1----2-------|
-----------------------|--1---------1---------1-----------------------------|

-----3----8------3----8------3------------------1------6-----------9p6------|
-----3----8------3----8------3----6------6------1-----------4-------------4-|
----------------------------------6------6----------------------------------|
---1-----------1-----------1-------------------------1-----------1----------|
-2------2----2------2----2------4----4-4---4--2----2------2----2--------2---|
----------------------------------------------------------------------------|

-----6--------------------|---6-------------------|---6----7---7------------|
----------6---6/4---4---4-|-------6---6/4---4---4-|-------------------------|
--------------------------|-----------------------|-----------------4----4--|
---1----------------------|-----------------------|-------------------------|
-2------4---4-----2---2---|-6---4---4-----2---2---|-6----7---7----2----2----|
--------------------------|-----------------------|-------------------------|

---------5---5---------------|--------------------|----------------7/8-7-5--|
------------------5---5------|---5---5-----5---5--|--------5----5-----------|
---4-------------------------|--------------------|-------------------------|
-----------------------------|--------------------|-------------------------|
-2---2/5---5-----------------|-5---5-----5---5----|-3----5----5----5--------|
----------------5---5---5\3--|--------------------|---4---------------------|

-3-1----------------------8-----------------------8-------------------------|
--------6---6-----6---6---9-----6---6-----6---6--9-9-7----6---6-----7---7---|
----------------------------------------------------------------------------|
----------------------------------------------------------------------------|
------5---5-----5---5---------5---5-----5---5-----------5---5-----6---6-----|
----------------------------------------------------------------------------|

----2h3---2-2----------4----3-------4-------3-|-8--8-8--8--8--8--8-8--8-8-8-|
----------------------------------------------|-7--7-7--6--6--5--5-6--6-7-6-|
----------------------------------------------|-----------------------------|
-------------------2h3------------------2h3---|-----------------------------|
--------3------3----------3-----2h3---3-------|-----------------------------|
-1--------------------------------------------|-----------------------------|

-8---8---8---8---8---8-------7----7---7--8-8----7---8------8----7------11---|
-5-5-6-6-7-7-6-5-6-5-7-5-----8----8-----------------------------------------|
----------------------------------------------------------------------------|
--------------------------5----5--------------5---5------6----5-----10------|
----------------------------------------------------------------------------|
----------------------------------------------------------------------------|


----10/11----10/11----10/11---------10/11------11---10----------------------|
------------------------------------------------------------12-----12-------|
----------------------------------------------------------------------------|
-10-------10-------10-------10/9\10-------9\10----9-------------------------|
--------------------------------------------------------10-----10-----10\14-|
----------------------------------------------------------------------------|

----------------------------------------------------------------------------|
-16-----16------12-----12----4----4----12-----15------12-----15-----12--15--|
----------------------------------------------------------------------------|
----------------------------------------------------------------------------|
----14------10-----10-----2----2------------------10-----10-----10----------|
------------------------------------12----15--------------------------------|

---8----------------------11-11--8-6----------------------------------------|
---8-6b---x-8-6--------8--------------------------8--8/13-13-13\10-10\8-8---|
---8----x--------6-5-6------------------------------------------------------|
---------------------------------------------3-1----------------------------|
--------------------------------------5-6--6-4-2----------------------------|
-8--------------------------------------------------------------------------|

----------------------------------------------------------------------------|
-8/9\8--8p6-----------------------------------------------------------------|
------------8-8--8\7-5--8\7-5-------1/8-8--------9-----------------------8--|
------------------------------6-------------5/11---11/15----17-------3/7----|
----------------------------------4-------3--------------16----16--2--------|
----------------------------------------------------------------------------|

---8h10-10p9--------------------------------8-----------------8-8/10h11-10--|
---------------8---8h9p8--8-7h8---7----8------8-------8-6---6---8-8---------|
--------------------------------6----7----------7-8-----5-5-5---------------|
-----------------------------------------10---------6-----------------------|
----------------------------------------------------------------------------|
-8-8-------------8--------------------------8-------------------------------|

---10---------------8--------11------10---11-|---8----6------9------8-|---8-|
-9----10-10-x-10----8------------------------|---8----6------9------8-|---8-|
----------------------8-8/10----10-9----9----|------------------------|-----|
---------------------------------------------|------------------------|-----|
---------------------------------------------|------------------------|-----|
------------------8--------------------------|-8----6----6/9----9\8---|-8---|

-----x-------------------|--------------------------------|---/10-11----14b-|
-----x-------------------|---6-----6-----6-----6-----6----|-----------------|
-------------------------|--------------------------------|-----------------|
-------------------------|--------------------------------|-----------------|
-------------------------|--------------------------------|-----------------|
-8-8-x--6/7/8--8-8--8-8--|-8-----8-----8-----8-----8------|-1---------------|

-13-------------15--18--20--22--18--15----22---20-20------------------------|
----13--15----16-----------------------15-----------------------------------|
----------------------------------------------------------------------------|
----------------------------------------------------------------------------|
----------------------------------------------------------------------------|
----------------------------------------------------------------------------|
Tap to rate this tab
 
# A B C D E F G H I J K L M N O P Q R S T U V W X Y Z