Song name
# A B C D E F G H I J K L M N O P Q R S T U V W X Y Z

John Frusciante - Mumur tab

Tabbed as best as possible...

E||-------------------|--------------------------|-------0----------------|
B||-------------------|--------------------1-----|------------------1b----|
G||--2----------------|--------2--------------0--|--2-------2----2-----0--|
D||-------------------|--0--0-----2--3--3--------|------------------------|
A||-------------------|--------------------------|------------------------|
E||-------------------|--------------------------|------------------------|


                                                                                 
--------------------------|--------0-----------------|--------------------------|
--------------------1-----|--------------------------|--------------------1-----|
--------2--------------0--|--2--2-----2----2--2h5p2--|--------2--------------0--|
--0--0-----2--3--3--------|--------------------------|--0--0-----2--3--3--------|
--------------------------|--------------------------|--------------------------|
--------------------------|--------------------------|--------------------------|


                                                                             
--------0----------------|-----------------------|--------------------0-----|
-------------------------|--------3--------------|--------------------------|
--2--2-----2----2--2--2--|--0--0-----0----0------|--3--3--3h5p3--2-------2--|
-------------------------|-----------------------|--------------------------|
-------------------------|-----------------------|--------------------------|
-------------------------|-----------------------|--------------------------|


                                                                               
--------------------------|--------0---------7--5--|--------------------------|
--------------------1-----|------------------------|--------------------1-----|
--------2--------------0--|--2--2-----2------------|--------2--------------0--|
--0--0-----2--3--3--------|------------------------|--0--0-----2--3--3--------|
--------------------------|------------------------|--------------------------|
--------------------------|------------------------|--------------------------|


                                                                               
--------0----------3h5-5--|--------------------------|--------0---------------|
--------------------------|--------------------1-----|------------------------|
--2--2-----2----2---------|--------2--------------0--|--2---2----2----2----2--|
--------------------------|--0--0-----2--3--3--------|------------------------|
--------------------------|--------------------------|------------------------|
--------------------------|--------------------------|------------------------|


                                                                             
----------------------|--------1-----------0-----|--------------------------|
-------3--------------|--------------------------|--------------------1-----|
--0-------0----0------|--3--3-----3--2--2-----2--|--------2--------------0--|
----------------------|--------------------------|--0--0-----2--3--3--------|
----------------------|--------------------------|--------------------------|
----------------------|--------------------------|--------------------------|


                                                                              
--------0-----------------|--------------------------|------0--0/3----1----0-|
-------------------1h3h1--|--------------------1-----|-----------------------|
--2--2-----2----2---------|--------2--------------0--|--2--------------------|
--------------------------|--0--0-----2--3--3--------|-----------------------|
--------------------------|--------------------------|-----------------------|
--------------------------|--------------------------|-----------------------|


                                                            
--------------------------|----------0-----0-----0-----0---|
--------------------1-----|--------3-----3-----3-----3-----|
--------2--------------0--|--2--2------2-----2-----2-----2-|
--0--0-----2--3--3--------|--------------------------------|
--------------------------|--------------------------------|
--------------------------|--------------------------------|


                                                                                   
--------------------------|--------1h3-1--------0h1-0--|--------------------------|
--------3----------1h3-3--|----------------------------|--------------------1-----|
--0--0-----0----0---------|--3--3---------2--2---------|--------2--------------0--|
--------------------------|----------------------------|--0--0-----2--3--3--------|
--------------------------|----------------------------|--------------------------|
--------------------------|----------------------------|--------------------------|


                                                                                
--------0-------------------|--------------------------|----------0----0----0--|
----------------------------|--------------------1-----|-----------------------|
--2--2-----2----2--5h7h5h2--|--------2--------------0--|--2----2---------------|
----------------------------|--0--0-----2--3--3--------|-----------------------|
----------------------------|--------------------------|-----------------------|
----------------------------|--------------------------|-----------------------|


                                                                                  
-------------------------|--------0-------0-----------|--------------------------|
-------------------1-----|----------------------------|--------------------1-----|
-------2-----------------|--2--2-----2-------5h7-5h2--|--------2--------------0--|
----0-----0--3--3-----3--|----------------------------|--0--0-----2--3--3--------|
-------------------------|----------------------------|--------------------------|
-------------------------|----------------------------|--------------------------|


                                                                                  
--------0------------------|--------------------------|--------0-------0--0h1p0--|
------------------5-3---1--|--------------------1-----|--------------------------|
--2--2-----2----------2----|--------2--------------0--|--2--2-----2--------------|
---------------------------|--0--0-----2--3--3--------|--------------------------|
---------------------------|--------------------------|--------------------------|
---------------------------|--------------------------|--------------------------|


                                                                                
-------------------------|--------1-----------0-----|--------------------------|
--------3-----------3----|--------------------------|--------------------1-----|
--0--0-----0-----0-------|--3--3-----3--2--2-----2--|--------2--------------0--|
--------------x----------|--------------------------|--0--0-----2--3--3--------|
-------------------------|--------------------------|--------------------------|
-------------------------|--------------------------|--------------------------|


                                                                             
--------0-----------------|--------------------------|--------0-------------|
-------------------3b1-1--|--------------------1-----|----------------------|
--2--2-----2----2---------|--------2--------------0--|--2--2-----2----------|
--------------------------|--0--0-----2--3--3--------|----------------------|
--------------------------|--------------------------|----------------------|
--------------------------|--------------------------|----------------------|


                                                                                  
--------------------------|-----0-----0----0----0----0--|------------------------|
--------------------1-----|---------1-------------------|--3-----3-----3----3----|
--------2--------------0--|--2----2-----2----2----2-----|--0--0-----0------------|
--0--0-----2--3--3--------|-----------------------------|------------------------|
--------------------------|-----------------------------|------------------------|
--------------------------|-----------------------------|------------------------|


                              
--------1------------||
---------------------||
--3--3-----3--2------||
---------------------||
---------------------||
---------------------||

I think that's pretty accurate, let me know for mistakes.
Tap to rate this tab
# A B C D E F G H I J K L M N O P Q R S T U V W X Y Z