Song name
# A B C D E F G H I J K L M N O P Q R S T U V W X Y Z

John Frusciante - I Cant See Until I See Your Eyes tab

Pretty much 100% correct, I feel.

E -----2-------2---|-----5-------5---|-----2-----2-|-----2-----2---|
B ---0---0---0---0-|---3---3---3---3-|---0-----0---|---0-----0---0-|
G -----------------|-0-------0-------|-------------|---------------|
D -2-------2-------|-----------------|-2-----2-----|-2-----2-------|
A -----------------|-----------------|-------------|---------------|
E -----------------|-----------------|-------------|---------------|


E -----5-------5---|-------2---------|-----0-------3---|-----3-0-----0---|
B ---3---3---3---3-|-----3-------3---|---0---0---0-0-0-|---0-0-0---0---0-|
G -0-------0-------|---2-------2---2-|-----------------|-----------------|
D -----------------|-0-------0-------|-2-------2-------|-2-------2-------|
A -----------------|-----------------|-----------------|-----------------|
E -----------------|-----------------|-----------------|-----------------|


E -|-----------------|-------2-2-------|-----0-------0-|-7-7-7-7-7-5-5-|
B -|-----1-1-1-------|-----3---3-3-----|-------1-----1-|-8-8-8-8-8-7-7-|
G -|---0-0-0---0---0-|---2-----------2-|---------------|-7-7-7-7-7-7-7-|
D -|-----------------|-0-----------0---|---------------|-5-5-5-5-5-7-7-|
A -|-3-----------3---|-----------------|-3-3-----3-3---|-----------5-5-|
E -|-----------------|-----------------|---------------|---------------|


E -5-5-5-5-|-0-0-0-0-0-0-0-0-0-0-0-|-----------|-1------------------|
B -7-7-7-7-|-1-1-1-1-1-1-1-1-1-1-1-|-2-2-2-0-0-|-1------------------|
G -7-7-7-7-|-0-0-0-0-0-0-0-0-0-0-0-|-2-2-2-0-0-|-2------------------|
D -7-7-7-7-|-----------------------|-2-2-2-0-0-|-3------------------|
A -5-5-5-5-|-3-3-3-3-3-3-3-3-3-3-3-|-0-0-0-----|-3------------------|
E ---------|-----------------------|-------3-3-|-1------------------|
Tap to rate this tab
 
# A B C D E F G H I J K L M N O P Q R S T U V W X Y Z