Song name
# A B C D E F G H I J K L M N O P Q R S T U V W X Y Z

John Frusciante - Nigger Song tab

Cm         Gm   G#             Gm
Crawled into my window breath
Cm          G#   Bbm
suck a cock and I'll be
G#         Eb          Bbm         G#
these will be, without staying the money
G#       Eb   Cm
one loves me-eeeee
F#       Ebm
Zero begins it
C#       G#     Ebm        Bbm
The one dream, everyones in it
C#  G#   Ebm    Bbm      F
Memories become me
F#       Bb        C#          G#   F#
Alone is the love a thing that lingers
(Fill 1)   Bbm     (Fill 2)   C#
I've been wait, run with me
G#       Eb         G#         Eb
Miss one moment, got a million love (?)
C#    Eb   Fm    C#    Eb    Fm
Have you one odd stray cord near (?)
    G#       Eb     Fm
One matter without him (?)
G#           Eb    Fm
Whether with him to be(?)
Fm
(screaming)
Fm     C#    G#      Eb
Nigger song, Nigger Song

feel higher, feeling high and we
feel higher, feel higher, feeling high and we
feeling high and we, feeling high and we
feeling high and we

(Fill 1):                (Fill 2):
-|-10-7-9-7-9-7---7----|-----------|----------------|
-|--------------7------|---6-4-6---|----------------|
-|---------------------|-----------|----------------|
-|---------------------|-----------|----------------|
-|---------------------|-----------|----------------|
-|---------------------|-----------|----------------|

"Feeling higher" part:
 2x                     2x
-|---------------------|------------------|---------|
-|---------------------|------------------|---------|
-|---------------------|------------------|---------|
-|---------------------|------------------|---------|
-|-444----6--4---------|-----11------4444-|---------|
-|--------------66666--|-222-----00-------|---------|
Tap to rate this tab
# A B C D E F G H I J K L M N O P Q R S T U V W X Y Z