Song name
# A B C D E F G H I J K L M N O P Q R S T U V W X Y Z

John Garrison - Never Far From Me tab

This is my first tab so bear with me
Standard tuning, no capo

intro:
e|0--7--4-------0--7----------0--7------5---4--4------2/4--4----2--2----0--0-|
b|--------------------4-------------2---2---1--0-----------0-------0-------0-|
g|-------------------------------------------------------------------------1-|
d|-------------------------------------------------------------------------2-|
a|---------------------------------------------------------------------------|
E|---------------------------------------------------------------------------|

e|--------0----------0--0----|
b|--------0-------0-----0----|
g|--------2----1--1-----1----|
d|--------2-------------2----|
a|---------------------------|
E|---------------------------|

rest of song (0:36 to the end)

e|0--7--4-------0--7----------0--7------5---4--4------2/4--4----2--2----0--0-|
b|--------------------4-------------2---2---2--0-----------0-------0-------0-|
g|-------------------------------------------------------------------------1-|
d|-------------------------------------------------------------------------2-|
a|---------------------------------------------------------------------------|
E|---------------------------------------------------------------------------|

e|--------0-----2-----0----|
b|--------0-----0-----0----|
g|--------2--1--1-----1----|
d|--------2-----2--2--2----|
a|-------------------------|
E|-------------------------|

this repeats through the remainder of the song.

Enjoy
Tap to rate this tab
# A B C D E F G H I J K L M N O P Q R S T U V W X Y Z