Song name
# A B C D E F G H I J K L M N O P Q R S T U V W X Y Z

John Hawkes - Marcys Song tab

Whole version

[Tuning D A D G B e]

[Intro x2]
e|---1-------1-------1-------1----|
B|-3--3-3--3--3-3--3--3-3--3--3-3-|
G|--0--0----0--0----2--2----2--2--|
D|--------------------------------|
A|--------------------------------|
D|3-------2-------0-------0-------|


[Verse x4]
e|---1-------0-------1-------1----|
B|-1--1-1--1--1-1--3--3-3--3--3-3-|
G|--2--2----0--0----2--2----2--2--|
D|3---------------0-------0-------|
A|--------3-----------------------|
D|--------------------------------|
Well she, she's just a picture
Who lives, lives on my wall
Well she, she's just a picture 
And the reason, reason, reason it is so small 


[Chorus x2]
e|---1----1----1----|
B|-1----1----3--3-3-|
G|--2----2----2--2--|
D|3----2----0-------|
A|------------------|
D|------------------|
With a smile so inviting
And a body so tall

e|---1-------0-------1-------1----|
B|-1--1-1--1--1-1--3--3-3--3--3-3-|
G|--2--2----0--0----2--2----2--2--| 
D|3---------------0-------0-------|
A|--------3-----------------------|
D|--------------------------------|
Well she, she's just a picture

e|---0--------0-------1-------1----|
B|-1--1-1------1-1--3--3-3--3--3-3-|
G|--0--0-----0--0----2--2----2--2--|
D|--------0h2------0-------0-------|
A|3--------------------------------|
D|---------------------------------|
Just a picture, that's all


[Verse x4]
e|---1-------0-------1-------1----|
B|-1--1-1--1--1-1--3--3-3--3--3-3-|
G|--2--2----0--0----2--2----2--2--|
D|3---------------0-------0-------|
A|--------3-----------------------|
D|--------------------------------|
Well you stand there, stand there with the nightshade
Her dripping ripping down your hands
And you ask me, ask me about the lightning
And the lady, lady, lady she understands


[Chorus x2]
e|---1----1----1----|
B|-1----1----3--3-3-|
G|--2----2----2--2--|
D|3----2----0-------|
A|------------------|
D|------------------|
It's a dream for the future and the water for the sands

e|---1-------0-------1-------1----|
B|-1--1-1--1--1-1--3--3-3--3--3-3-|
G|--2--2----0--0----2--2----2--2--| 
D|3---------------0-------0-------|
A|--------3-----------------------|
D|--------------------------------|
And the strangeness is wandering

e|---0--------0-------1-------1----|
B|-1--1-1------1-1--3--3-3--3--3-3-|
G|--0--0-----0--0----2--2----2--2--|
D|--------0h2------0-------0-------|
A|3--------------------------------|
D|---------------------------------|
Through many calling lands


[Bridge/Intro x4]
e|---1-------1-------1-------1----|
B|-3--3-3--3--3-3--3--3-3--3--3-3-|
G|--0--0----0--0----2--2----2--2--|
D|--------------------------------|
A|--------------------------------|
D|3-------2-------0-------0-------|


[Verse x4]
e|---1-------0-------1-------1----|
B|-1--1-1--1--1-1--3--3-3--3--3-3-|
G|--2--2----0--0----2--2----2--2--|
D|3---------------0-------0-------|
A|--------3-----------------------|
D|--------------------------------|
And the caravan it becomes an alter
And the priests, the priests are big as none
And I'll share, share our time together
Until our time together is done


[Chorus x2]
e|---1----1----1----|
B|-1----1----3--3-3-|
G|--2----2----2--2--|
D|3----2----0-------|
A|------------------|
D|------------------|
But your skin it was pretty
And I loved, I loved another one

e|---1-------0-------1-------1----|
B|-1--1-1--1--1-1--3--3-3--3--3-3-|
G|--2--2----0--0----2--2----2--2--| 
D|3---------------0-------0-------|
A|--------3-----------------------|
D|--------------------------------|
Now she, she's like some picture

e|---0--------0-------1-------1----|
B|-1--1-1------1-1--3--3-3--3--3-3-|
G|--0--0-----0--0----2--2----2--2--|
D|--------0h2------0-------0-------|
A|3--------------------------------|
D|---------------------------------|
That has faded in the sun


[Verse x4]
e|---1-------0-------1-------1----|
B|-1--1-1--1--1-1--3--3-3--3--3-3-|
G|--2--2----0--0----2--2----2--2--|
D|3---------------0-------0-------|
A|--------3-----------------------|
D|--------------------------------|
Well she, she's just a picture
Who lives, lives on my wall
Well she, she's just a picture 
And the reason, reason, reason it is so small 


[Chorus x2]
e|---1----1----1----|
B|-1----1----3--3-3-|
G|--2----2----2--2--|
D|3----2----0-------|
A|------------------|
D|------------------|
With a smile so inviting
And a body so tall

e|---1-------0-------1-------1----|
B|-1--1-1--1--1-1--3--3-3--3--3-3-|
G|--2--2----0--0----2--2----2--2--| 
D|3---------------0-------0-------|
A|--------3-----------------------|
D|--------------------------------|
Well she, she's just a picture

e|---0--------0-------1-------1----|
B|-1--1-1------1-1--3--3-3--3--3-3-|
G|--0--0-----0--0----2--2----2--2--|
D|--------0h2------0-------0-------|
A|3--------------------------------|
D|---------------------------------|
Just a picture, that's all

e|---0----------------------|
B|-1--1-1------3-333--3-333-|
G|--0--0--------------------|
D|--------0h2-0------0------|
A|3-------------------------|
D|--------------------------|
Just a picture, that's all


[Outro x2]
e|---1----1----1----|
B|-3----3----3--3-3-|
G|--0----0----2--2--|
D|------------------|
A|------------------|
D|3----2----0-------|

e|---1-------1-------1--0--1----|
B|-3--3-3--3--3-3--3--3--3--3-3-|
G|--0--0----0--0----2--2--2-2--|
D|------------------------------|
A|------------------------------|
D|3-------2-------0-------------|

e|---1-------1------|
B|-3--3-3--3--3-3---|
G|--0--0----0--0----|
D|------------------|
A|------------------|
D|3-------2-------0-|
Tap to rate this tab
# A B C D E F G H I J K L M N O P Q R S T U V W X Y Z