Song name
# A B C D E F G H I J K L M N O P Q R S T U V W X Y Z

John Hiatt - Angel Eyes tab

Tabbed by:Alex Repucci
Email:mathguy9715@hotmail.com

Tuning:EADGBE (Standard)

e|-----------------------2---5---2---0----3-2-3--5-5---5-7--10--10-----------|
B|------------------3-3----------------3-------------------------------------|
G|--------0------2-----------------------------------------------------------|
D|-0--4-4---4-2--------------------------------------------------------------|
A|---------------------------------------------------------------------------|
E|---------------------------------------------------------------------------|

e|-12--10-14-10--17--14--10---19----2--5-5-5--7-5--2-0-----------------------|
B|-------------------------------------------------------3-3-----------------|
G|-----------------------------------------------------------0-0-0-0---------|
D|-------------------------------------------------------------------4--0-0--|
A|---------------------------------------------------------------------------|
E|---------------------------------------------------------------------------|
Tap to rate this tab
# A B C D E F G H I J K L M N O P Q R S T U V W X Y Z