Song name
# A B C D E F G H I J K L M N O P Q R S T U V W X Y Z

John Hiatt - Have A Little Faith In Me tab

Capo The 1st Fret.  Just makes it easier.

Intro & Verse

E------------------------------------1-------------|
A------------5--------------1----------------------|
D---3----------------------------------------------|
G--------------------------------------------------|
B---1--1--1--1--1--1--1--1--1--1--1--1--1--1--1--1-|
E---1--1--1--1--1--1--1--1--1--1--1--1--1--1--1--1-|

Chorus (Chords)
F  C  Dm  F Bb C

End Chorus With
E------1--3--5------------------|
A--3------------1--3------------|
D-------------------------------|
G-------------------------------|
B-------------------------------|
E-------------------------------|


Personally, I find this easier and it sounds exactly like his version.
Singing while keeping his time, thats the hard part.
Drew.
Tap to rate this tab
 
# A B C D E F G H I J K L M N O P Q R S T U V W X Y Z