Song name
# A B C D E F G H I J K L M N O P Q R S T U V W X Y Z

John Lee Hooker - Boom Boom Boom tab

|--------0---------|----------|----------------|-----------|
|------------------|----------|----------------|-----------|
|----2/4---2-0-----|----------|--0---3p2-0-----|-----------|
|--------------2p0-|2---------|------------2p0-|2----------|
|------------------|----------|----------------|-----------|
|------------------|----------|----------------|-----------|
|                                                          |
|------------------|----------|----------------|-----------|
|------------------|----------|----------------|-----------|
|------------------|----0-2p0-|----------------|-----0-2p0-|
|------------------|--2-------|2---------------|---2-------|
|------------------|----------|----------------|-----------|
|------------------|----------|----------------|-----------|

|-------------------|----------|----------------|----------|----------------|
|----3---0----------|----------|----------------|----------|----------------|
|---------4\2p0-----|----------|--0---3p2-0-----|----------|----------------|
|---------------2p0-|2---------|------------2p0-|2---------|----------------|
|-------------------|----------|----------------|----------|----------------|
|-------------------|----------|----------------|----------|----------------|
|
|-------------------|----------|----------------|----------|----------------|
|-------------------|----------|----------------|----------|----------------|
|-------------------|----5-7p5-|----------------|----0-2p0-|----------------|
|--2----------------|--7-------|----------------|--2-------|2---------------|
|-------------------|----------|7---------------|----------|----------------|
|-------------------|----------|----------------|----------|----------------|
Tap to rate this tab
# A B C D E F G H I J K L M N O P Q R S T U V W X Y Z