Song name
# A B C D E F G H I J K L M N O P Q R S T U V W X Y Z

John Lee Hooker - Boom Boom Boom tab

BOOM BOOM
John Lee Hooker

Gtr 1 (Standard tuned)- clean electric

I must say, this is my adaptation of the song. It is not completely accurate, but the 
is very similar and will help to get used to the style of the song.

Also, this is my first ever tab, so please rate and comment, and any constructive 
would be helpful. thanks.

                                           ~~
e|-------------------------------------0-------0---0-----------|
B|-------------------------------------0-0-2-0-0-0-0-----------|
G|-----0-2b(4)-2-0---------------------1-0-2-0-1-0-1-----------|
D|--/2-------------2-0-2---------------2-0-2-0-2-0-2-----------|
A|-------------------------------------2-0---0-2-0-2-----------|
E|-------------------------------------0-------0---0-----------|

                            then repeat above chords
e|-------------------------------------------------------------------------|
B|-------------------------------------------------------------------------|
G|--2b(4)-2b(4)-2-0--------------------------------------------------------|
D|------------------2-2----------------------------------------------------|
A|-------------------------------------------------------------------------|
E|-------------------------------------------------------------------------|
                                       A A7     A
e|-------------------------------------------------------------------------|
B|-------------------------------------2-2-2-22-2--------------------------|
G|-2b(4)-2b(4)-2-0---2-----------------2-0-0-00-2--------------------------|
D|-----------------2-------------------2-2-2-22-2--------------------------|
A|-------------------------------------------------------------------------|
E|-------------------------------------------------------------------------|
                                       E   A   E   E
e|-------------------------------------0-------0---0-----------------------|
B|-------------------------------------0-0-2-0-0-0-0-----------------------|
G|-2b(4)-2-0---------------------------1-0-2-0-1-0-1-----------------------|
D|-----------2-0-2---------------------2-0-2-0-2-0-2-----------------------|
A|-------------------------------------2-0---0-2-0-2-----------------------|
E|-------------------------------------0-------0---0-----------------------|
                                       B7          A
e|-------------------------------------2-2-2-2-2---------------------------|
B|-------------------------------------0-0-0-0-0-0h2-----------------------|
G|-2b(4)-2b(4)-2-0---------------------2-2-2-2-2-0h2-----------------------|
D|-----------------2-------------------1-1-1-1-1-0h2-----------------------|
A|-------------------------------------2-2-2-2-2---------------------------|
E|-------------------------------------------------------------------------|
                                       E   A   E   E
e|-------------------------------------0-------0---0-----------------------|
B|-------------------------------------0-0-2-0-0-0-0-----------------------|
G|-2b(4)-2-0---------------------------1-0-2-0-1-0-1-----------------------|
D|-----------2-0-2---------------------2-0-2-0-2-0-2-----------------------|
A|-------------------------------------2-------2---2-----------------------|
E|-------------------------------------0-------0---0-----------------------|

************************************

| /   slide up
| \   slide down
| h   hammer-on
| p   pull-off
| ~   vibrato
| +   harmonic
| x   Mute note
| b   Bend
| pb  Pre-bend
| br  Bend release
| pbr Pre-bend release
| brb Bend release bend

************************************
Tap to rate this tab
 
# A B C D E F G H I J K L M N O P Q R S T U V W X Y Z