Song name
# A B C D E F G H I J K L M N O P Q R S T U V W X Y Z

John Lee Hooker - Boom Boom Boom tab

This Tab is of a life version and may differ from the studio record.

b: bend
rb: releas bend
p: pull of

Intro
E----------------|-----------|----------------|---------|-----------------|
H----5-----------|-----------|----------------|---------|-3b5-0-----------|
G-/4---4-2-------|-0-2p0-1---|---0-2b4-0------|-0-2-p0-1|-------2-0-------|
D----------2-0-2-|-0-2p0-2---|-2---------2-0-2|-0-2-p0-0|-----------2-0-2-|
A----------------|-------2---|----------------|--------2|-----------------|
E----------------|-----------|----------------|---------|-----------------|

E--------|----------------|---------|
H--------|----------------|---------|
G-0-2p0-1|---0-2b4-0------|-0-2p0-1-|
D-0-2p0-2|-2---------2-0-2|-0-2p0-0-|
A-------2|----------------|-------2-|
E--------|----------------|---------|


Then he starts singig and answering himself with this riff
E-----------------------|
H---3b5-0---------------|
G---------3b5rb3-0------|
D-2----------------2-0-2|
A-----------------------|
E-----------------------|
Tap to rate this tab
# A B C D E F G H I J K L M N O P Q R S T U V W X Y Z