Song name
# A B C D E F G H I J K L M N O P Q R S T U V W X Y Z

John Legend - Ordinary People tab



rhythm and bass combined
E-------------|----------------|-------------------|
B--3--1-------|---------4------|-------------------|
G--------2----|0--5--3-3--3-0--|-------------------|
D-------------|------1--------0|-------------------|
A--------1----|1---------------|-3-----------------|
E-------------|----------------|-------------------|x2 before chords

rhythm alone
E-------------|----------------|-------------------|
B--3--1-------|----------------|-------------------|
G--------2----|0--5--3---3--0--|-------------------|
D-------------|---------------0|-------------------|
A-------------|----------------|-3-----------------|
E-------------|----------------|-------------------|x2 before chords

bass alone (I took out the octave jump with the b flat so you can play both parts at one time.)
E-------------|----------------|-------------------|
B-------------|---------4------|-------------------|
G-------------|--------3-------|-------------------|
D-------------|------1---------|-------------------|
A--------1----|1---------------|-------------------|
E-------------|----------------|-------------------|x2 before chords


Here are the chords.
E-1-----------|----------------|-------------------|
B-1---3---3---|----------------|-------------------|
G-3---3---3---|----------------|-------------------|
D-0---3---5---|----------------|-------------------|
A-0-----------|----------------|-------------------|
E-------------|----------------|-------------------|





Tap to rate this tab
 
# A B C D E F G H I J K L M N O P Q R S T U V W X Y Z