Guitaretab - guitar tabs
Song name
# A B C D E F G H I J K L M N O P Q R S T U V W X Y Z

John Legend - I Love You Love tab

By mraz27fan

not sure about everything being right but you can get the jest of it this is tunnel of 
by dire straits listened to it yesterday and noticed the similarity

thanks to tzitron@loria.fr (Vincent Tzitron)who posted this on dire straits

used for intro

---------------------------------------------------------------------|
-10^11^10----------10-11-10--------------10-13-10-11--------------10-|
------------12--------------12-10-12------------------------10-12----|
------------14---------------------------------------12--------------|
---------------------------------------------------------------------|
---------------------------------------------------------------------|

----------------------------------------------------------------------|
-10^11^10---10(11)10---10-11-10---------------------10-11-10----------|
----------------------------------10-12---10-12--------------12-10-12-|
----------------------------------------------------------------------|
----------------------------------------------------------------------|
----------------------------------------------------------------------|

---------------------------------------------------------------------|
-10-13-10-11-----------10----------10--------------------13(15)13----|
-------------10-10--------12-10-12------12^10---12^10----------------|
----------------12---------------------------------------------------|
---------------------------------------------------------------------|
---------------------------------------------------------------------|

------------------------10-------------------------------------------|
-10-11---------------------13---------------------------12--------12-|
-------10-12-12^10^12-------------------------10-12(14)----12(14)----|
------------------------------10-10-12-12----------------------------|
---------------------------------------------------------------------|
---------------------------------------------------------------------|

-------------------------------------------------------------|
-13----10-13----10-13-10--------------12---------------------|
----12-------12----------12-10-12(14)------------------------|
-------------------------------------------------------------|
-------------------------------------------------------------|
-------------------------------------------------------------|

-------------------------------------------------------------|
-------------------------------------------------------------|
----9-10-12-10^12^10-9-9^10^9----10----10--------------------|
-12---------------------------12----12----12-10--------------|
-------------------------------------------------------------|
-------------------------------------------------------------|
[ Tab from: http://www.guitaretab.com/j/john-legend/180963.html ]
--------------------------------------------10-10---10-------|
--------------------------------------11-13------------13-13-|
----------------9-10-9-10------------------------------------|
-12-10-12-10-12-----------10-10-10-12------------------------|
-------------------------------------------------------------|
-------------------------------------------------------------|

---------------------------------------10-13-12-10----10----10----------|
-11-10---10-10----------(15)13(15)-----------------13----13----13-------|
---------------12-10-10-------------------------------------------12-12-|
------------------------------------------------------------------------|
------------------------------------------------------------------------|
------------------------------------------------------------------------|

------------------10-13----10-13----10-13-10-------10-------10-----------|
---------------13-------13-------13----------13-10----10-13--------10^13-|
-(14)12-10---------------------------------------------------------------|
-------------------------------------------------------------------------|
-------------------------------------------------------------------------|
-------------------------------------------------------------------------|

----10-------10--------13-12-10-----------17----------------------|
-10----10-13--------10----------10-----------20-20----------------|
---------------------------------------------------17^19^17----17-|
---------------------------------------19-------------------19----|
------------------------------------------------------------------|
------------------------------------------------------------------|

--------------------13-13-13----10--------------------------------|
----10------10-13------------11-------13--------------------------|
-10--------------------------------10-----------------------------|
-------10---------------------------------------------------------|
------------------------------------------------------------------|
------------------------------------------------------------------|

-------------17-18-17-----------------------------------------------|
----18----18----------20-18^20^18-17-----------------18----18-20-20-|
-17----17----------------------------19-----------19----19----------|
----------------------------------------19-19-----------------------|
--------------------------------------------------------------------|
--------------------------------------------------------------------|

-------------------17--------------------------------------|
-17-18-20-17-18-20-------18------18-18------18-18----------|
----------------------19------19---------19---------19-----|
-----------------------------------------------------------|
-----------------------------------------------------------|
-----------------------------------------------------------|
Related for I Love You Love tab
Advertisement will be closed in 10 seconds