Song name
# A B C D E F G H I J K L M N O P Q R S T U V W X Y Z

John Legend - Pda We Just Dont Care tab

Part 1: (palm-mute)
E||---------------------------------------------------------|
B||---------------------------------------------------------|
G||---------------------------------------------------------|
D||----9---9---9---9---9---9---11---8-----------------------|
A||------------------------------------------9--------------|
E||---------------------------------------------------11~---|


E||---------------------------------------------------------|
B||---------------------------------------------------------|
G||---------------------------------------------------8-----|
D||----9---9---9---9---9---9---11---8-----------------------|
A||------------------------------------------9--------------|
E||---------------------------------------------------------|


Part 2:
E||--11-----11r9-11------9-------------9-----------|
B||------------------------12-11---12--------------|
G||--------------------------------------11--------|
D||------------------------------------------------|
A||------------------------------------------------|
E||------------------------------------------------|

E||------------------------9----11-12--s16-14------|
B||--9----11-12-9----11-12-------------------------|
G||------------------------------------------------|
D||------------------------------------------------|
A||------------------------------------------------|
E||------------------------------------------------|
Tap to rate this tab
 
# A B C D E F G H I J K L M N O P Q R S T U V W X Y Z