Song name
# A B C D E F G H I J K L M N O P Q R S T U V W X Y Z

John Lennon - Oh My Love tab

I love this song and couldn't find one accurate tab! Sigh ...Well here's how I play it.

Intro: Use a soft plucking motion.

Gtr 1.

e------------5------------4-------------2---------------------|
B---------7--7----------5-------------3---3-------------------|
G-------7-------------6---4---------4------------6h7p6--------|
D-----7-------------6-------------4------------7--------------|
A---5-------------4-------------2-------------7---------------|
E--------------------------------------------5----------------|

Gtr 1.
e------------5------------4------------5----------------------|
B---------7--7----------5----2---------7--7-------------------|
G-------7-------------6---4--3------4-----7------6h7p6--------|
D-----7-------------6-------------4------------7--------------|
A---5-------------4-------------2-------------7---------------|
E--------------------------------------------5----------------|

Gtr 2. (If you're playing with accompaniment, this is the little piano riff that backs 
guitar. It may not be exact though 'cuz it's not very audible but it's more or less right 
sounds good)

e----5---4----5---4--5--4---2----4------5---4---5----------------------|
B------7---7----7---------5---5--5--2-----7---7---5-10-----------------|
G----7--------7---------6--------6--3---7-------7----------6h7s9-------|
D---------------------------------------------------------7------------|
A--------------------------------------------------------7-------------|
E-------------------------------------------------------5--------------|

Verse: (Use a soft plucking motion...you can vary the plucking, this is how I play it 
are the chords for the verses, so you can strum, pluck, whatever floats your boat)

      D         Cm         Bm         A
e--------------------------------------------------------------|
B--7--7-------5--5-------3---3---------------------------------|
G----7-7--7-----6-6---6-----4-4--------6h7p6-------------------|
D---7---7-7----6---6--6----4---4------7------------------------|
A--5-----5----4-----4----2------2----7-------------------------|
E-----------------------------------5--------------------------|

Chorus:

      F#m         Cm        D       A        C#

e------------------4---------------------------------------------------|
B-----2-2---------6-6-----7--7-----------------------------------------|
G-----2-2--------6---6------7-7-----6---6--10----10--------------------|
D----4---4-4----6-----6----7---7-7-----7-------11----------------------|
A---4-----4----4----------5-----5-----7------11------------------------|
E--2--------------------------------5------9---------------------------|

So yeah, that's basically the song in a nutshell. Pretty simple, but very effective. Any 
and you can email me: eveningfitzz_j@hotmail.com

Cheers! :)
Tap to rate this tab
 
# A B C D E F G H I J K L M N O P Q R S T U V W X Y Z