Song name
# A B C D E F G H I J K L M N O P Q R S T U V W X Y Z

John Lennon - Stand By Me tab

Help us improve GuitareTab! Take a short survey!
STAND BY ME


GUITAR SOLO

  02:08

   A
e|/17----------------------14------|-12------------------------------|
B|/17------------------------------|-14------------------------------|
G|---------------------------------|---------------------------------|
D|---------------------------------|---------------------------------|
A|---------------------------------|---------------------------------|
E|---------------------------------|---------------------------------|

e|---------------------------------|---------------------------------|
B|---------------------------------|---------------------------------|
G|---------4h6---------4---4-------|---------------------------------|
D|---------------------------------|-7-------6------------4----7-----|
A|---------------------------------|-----------------4---------------|
E|---------------------------------|---------------------------------|




   F#m
e|---------------------------------|-------------------------19------|
B|-10------------------------------|-----------------------------19--|
G|-11------------------------------|-11------------------------------|
D|---------------------------------|-11------------------------------|
A|---------------------------------|---------------------------------|
E|---------------------------------|---------------------------------|

e|---------------------------------|---------------------------------|
B|---------------------------------|---------------------------------|
G|-4-----------6---6---------------|---------------------6\4-2-------|
D|---------------------------------|-----------------------------4---|
A|---------------------------------|---------------------------------|
E|---------------------------------|---------------------------------|




   D                                 E
e|---------------------------------|-------------------------17\-----|
B|-10----------------------14\-----|-12------------------------------|
G|-11----------------------14\-----|-13------------------------------|
D|---------------------------------|---------------------------------|
A|---------------------------------|---------------------------------|
E|---------------------------------|---------------------------------|

e|---------------------------------|---------------------------------|
B|---------------------------------|---------------------------------|
G|---------------------------------|---------------------------------|
D|---------------------------------|----------------------7----9-----|
A|-5-----------------------7---9---|-7---------------7---------------|
E|---------------------------------|---------------------------------|




   A
e|---------------------------------|---------------------------------|
B|-14------------------------------|---------------------------------|
G|-14------------------------------|---------------------------------|
D|---------------------------------|---------------------------------|
A|---------------------------------|---------------------------------|
E|---------------------------------|---------------------------------|

e|---------------------------------|---------------------------------|
B|---------------------------------|---------------------------------|
G|-------------6---6---------------|---------------------------------|
D|-9-----------7---7---------------|-------------------------x\------|
A|---------------------------------|---------------------------------|
E|---------------------------------|---------------------------------|




  02:26

   A
e|/17---------------------/19------|-17----------------------19------|
B|---------------------------------|---------------------------------|
G|---------------------------------|---------------------------------|
D|---------------------------------|---------------------------------|
A|---------------------------------|---------------------------------|
E|---------------------------------|---------------------------------|

e|---------------------------------|---------------------------------|
B|---------------------------------|---------------------------------|
G|---------4h6---------4---4-------|---------------------------------|
D|---------------------------------|-7-------6------------4----7-----|
A|---------------------------------|-----------------4---------------|
E|---------------------------------|---------------------------------|




   F#m
e|-21-p19------17------------------|---------------------------------|
B|---------------------------------|---------------------------------|
G|---------------------------------|---------------------------------|
D|---------------------------------|---------------------------------|
A|---------------------------------|---------------------------------|
E|---------------------------------|---------------------------------|

e|---------------------------------|---------------------------------|
B|---------------------------------|---------------------------------|
G|-4-----------6---6---------------|---------------------6-4-2-------|
D|---------------------------------|-----------------------------4---|
A|---------------------------------|---------------------------------|
E|---------------------------------|---------------------------------|




   D                                 E
e|---------17----------------------|---------19----------------------|
B|-15----------17-h19--------------|-17----------19-h21--------------|
G|---------------------------------|---------------------------------|
D|---------------------------------|---------------------------------|
A|---------------------------------|---------------------------------|
E|---------------------------------|---------------------------------|

e|---------------------------------|---------------------------------|
B|---------------------------------|---------------------------------|
G|---------------------------------|---------------------------------|
D|---------------------------------|----------------------7----9-----|
A|-5-----------------------7---9---|-7---------------7---------------|
E|---------------------------------|---------------------------------|




   A
e|-16----------17--17--------------|---------------------------------|
B|---------------------------------|---------------------------------|
G|---------------------------------|---------------------------------|
D|---------------------------------|---------------------------------|
A|---------------------------------|---------------------------------|
E|---------------------------------|---------------------------------|

e|---------------------------------|---------------------------------|
B|---------------------------------|---------------------------------|
G|-------------6---6---------------|---------------------------------|
D|-9-----------7---7---------------|-------------------------x\------|
A|---------------------------------|---------------------------------|
E|---------------------------------|---------------------------------|
Related for Stand By Me tab