Song name
# A B C D E F G H I J K L M N O P Q R S T U V W X Y Z

John Lennon - Imagine tab

Hi all! This is a great song by a musical legend; John Lennon. It's quite easy 
takes some getting used to. I've also got tabs on this site for dreams by Fleetwood Mac and The 
Tripper riff by The Beatles. I'm hoping to do loads more. Please Rate:
Song: Imagine
Artist: John Lennon
Capo fret 2: (All notes relative to capo)!

Part 1: X4
---------------------------------|
-1---1---0---0---1---1--1--0-----|
-0---0---0---0---2---2--2--2-----|
---------------------------------|
-3-3-----3-3-----3-3--3--3-------|
---------------------------------|
Imagine There's no heaven
It's easy if you try
No hell below us
Above us only sky

Part 2:
------------------------------------------------------------------|
-0-3---3-1----1-1---1----1---1----3----3-5----5----5-----0----0---|
-0-0---0-2----2-2---2----2---2----4----4-5----5----5-----0----0---|
----------------0-0-----------------------------------------------|
-0-------0-0----------3----3---5----5----3-3----3-----2----2----2-|
---3-3------------------------------------------------------------|
Imagine all the people
Living for today
Ah__________________

Part 1: X4
---------------------------------|
-1---1---0---0---1---1--1--0-----|
-0---0---0---0---2---2--2--2-----|
---------------------------------|
-3-3-----3-3-----3-3--3--3-------|
---------------------------------|
Imagine there's no countries
It isn't hard to do
Nothing to kill or die for
And no religion too

Part 2:
------------------------------------------------------------------|
-0-3---3-1----1-1---1----1---1----3----3-5----5----5-----0----0---|
-0-0---0-2----2-2---2----2---2----4----4-5----5----5-----0----0---|
----------------0-0-----------------------------------------------|
-0-------0-0----------3----3---5----5----3-3----3-----2----2----2-|
---3-3------------------------------------------------------------|
Imagine all the people
Living life in peace
You_____________

Part 3: X4
------------------------------------------------------|
-1----1----1--3----3----3--5----5----5--3----3----3---|
-2----2----2--4----4----4--5----5----5--4----4----4---|
 -----------------------------------------------------|
-3-3----3-----5-5----5-----3-3-----3----2-2----2------|
------------------------------------------------------|
You may say I'm a dreamer
But I'm not the only one
I hope some day you'll join us
And the world will be as one

Part 1: X4
---------------------------------|
-1---1---0---0---1---1--1--0-----|
-0---0---0---0---2---2--2--2-----|
---------------------------------|
-3-3-----3-3-----3-3--3--3-------|
---------------------------------|
Imagine there's no positions
I wonder if you can
No need for greed or hunger
A brother-hood of man

Part 2:
------------------------------------------------------------------|
-0-3---3-1----1-1---1----1---1----3----3-5----5----5-----0----0---|
-0-0---0-2----2-2---2----2---2----4----4-5----5----5-----0----0---|
----------------0-0-----------------------------------------------|
-0-------0-0----------3----3---5----5----3-3----3-----2----2----2-|
---3-3------------------------------------------------------------|
Imagine all the people
Sharing all the world
You_________________

Part 3: X3
----------------------------------------------------|
-1----1----1--3----3----3--5----5----5--3----3----3-|
-2----2----2--4----4----4--5----5----5--4----4----4-|
----------------------------------------------------|
-3-3----3-----5-5----5-----3-3-----3----2-2----2----|
----------------------------------------------------|
You may say that I'm a dreamer
But I'm not the only one
I hope some day you'll join us

Part 4: (Very similar to part 3):
----------------------------0-|
-1----1----1--3----3----3---1-|
-2----2----2--4----4----4---2-|
----------------------------0-|
-3-3----3-----5-5----5------3-|
----------------------------3-|
And the world will live as one!
Tap to rate this tab
 
# A B C D E F G H I J K L M N O P Q R S T U V W X Y Z