Song name
# A B C D E F G H I J K L M N O P Q R S T U V W X Y Z

John Lennon - Stand By Me tab

-------------------------------------------------------------------------------
			     Stand By Me - John Lennon
-------------------------------------------------------------------------------
Tabbed by: nrrjw
Tuning: Standard

   A		       Asus4 F#m				     D
e|-X-0-X-0-X-0-X-0-X-0-X-0-X-2-X-2-X-2-X-2-X-2-X-2-X-2-X-2-X-2-X-2-X-2-X-2-X-2-|
B|-X-2-X-2-X-2-X-2-X-2-X-3-X-2-X-2-X-2-X-2-X-2-X-2-X-2-X-2-X-2-X-2-X-3-X-3-X-3-|
G|-X-2-X-2-X-2-X-2-X-2-X-2-X-2-X-2-X-2-X-2-X-2-X-2-X-2-X-2-X-2-X-2-X-2-X-2-X-3-|
D|-X-2-X-2-X-2-X-2-X-2-X-2-X-4-X-4-X-4-X-4-X-4-X-4-X-4-X-4-X-4-X-4-X-0-X-0-X-0-|
A|-X-0-X-0-X-0-X-0-X-0-X-0-X-4-X-4-X-4-X-4-X-4-X-4-X-4-X-4-X-4-X-4-X-----------|
E|-------------------------X-2-X-2-X-2-X-2-X-2-X-2-X-2-X-2-X-2-X-2-X-----------|
           E               A
e|-2-X-2-X-0-X-0-X-0-X-0-X-0-X-0-X-0-X-0-X-0-X-0-|
B|-3-X-3-X-0-X-0-X-0-X-0-X-2-X-2-X-2-X-2-X-2-X-2-|
G|-2-X-2-X-1-X-1-X-1-X-1-X-2-X-2-X-2-X-2-X-2-X-2-|
D|-0-X-0-X-2-X-2-X-2-X-2-X-2-X-2-X-2-X-2-X-2-X-2-|
A|-------X-2-X-2-X-2-X-2-X-0-X-0-X-0-X-0-X-0-X-0-|
E|-------X-0-X-0-X-0-X-0-------------------------|

  LEAD GUITAR
e|-----------------------------------------------|
B|-----------------------------------------------|
G|-----------------------------------------------|
D|-------------------------/7--7--7B9R7----------|
A|-----------------------------------------------|
E|-----------------------------------------------|

   A		       Asus4 F#m				     D
e|-X-0-X-0-X-0-X-0-X-0-X-0-X-2-X-2-X-2-X-2-X-2-X-2-X-2-X-2-X-2-X-2-X-2-X-2-X-2-|
B|-X-2-X-2-X-2-X-2-X-2-X-3-X-2-X-2-X-2-X-2-X-2-X-2-X-2-X-2-X-2-X-2-X-3-X-3-X-3-|
G|-X-2-X-2-X-2-X-2-X-2-X-2-X-2-X-2-X-2-X-2-X-2-X-2-X-2-X-2-X-2-X-2-X-2-X-2-X-3-|
D|-X-2-X-2-X-2-X-2-X-2-X-2-X-4-X-4-X-4-X-4-X-4-X-4-X-4-X-4-X-4-X-4-X-0-X-0-X-0-|
A|-X-0-X-0-X-0-X-0-X-0-X-0-X-4-X-4-X-4-X-4-X-4-X-4-X-4-X-4-X-4-X-4-X-----------|
E|-------------------------X-2-X-2-X-2-X-2-X-2-X-2-X-2-X-2-X-2-X-2-X-----------|
  When the night     has come            And the land is dark     And the moon

e|-----------------------------------------------------------------------------|
B|-----------------------------------------------------------------------------|
G|-----------------------------------------------------------9B11R9------------|
D|-----------------------------------------------------------------------------|
A|-----------------------------------------------------------------------------|
E|-----------------------------------------------------------------------------|

           E               A
e|-2-X-2-X-0-X-0-X-0-X-0-X-0-X-0-X-0-X-0-X-0-|
B|-3-X-3-X-0-X-0-X-0-X-0-X-2-X-2-X-2-X-2-X-2-|
G|-2-X-2-X-1-X-1-X-1-X-1-X-2-X-2-X-2-X-2-X-2-|
D|-0-X-0-X-2-X-2-X-2-X-2-X-2-X-2-X-2-X-2-X-2-|
A|-------X-2-X-2-X-2-X-2-X-0-X-0-X-0-X-0-X-0-|
E|-------X-0-X-0-X-0-X-0---------------------|
    Is the only        Light to see

e|-------------------------------------------|
B|-------------------------------------------|
G|-------------------------------------------|
D|-----------------------------/7--7--7B9R7--|
A|-------------------------------------------|
E|-------------------------------------------|

   A		       Asus4 F#m				     D
e|-X-0-X-0-X-0-X-0-X-0-X-0-X-2-X-2-X-2-X-2-X-2-X-2-X-2-X-2-X-2-X-2-X-2-X-2-X-2-|
B|-X-2-X-2-X-2-X-2-X-2-X-3-X-2-X-2-X-2-X-2-X-2-X-2-X-2-X-2-X-2-X-2-X-3-X-3-X-3-|
G|-X-2-X-2-X-2-X-2-X-2-X-2-X-2-X-2-X-2-X-2-X-2-X-2-X-2-X-2-X-2-X-2-X-2-X-2-X-3-|
D|-X-2-X-2-X-2-X-2-X-2-X-2-X-4-X-4-X-4-X-4-X-4-X-4-X-4-X-4-X-4-X-4-X-0-X-0-X-0-|
A|-X-0-X-0-X-0-X-0-X-0-X-0-X-4-X-4-X-4-X-4-X-4-X-4-X-4-X-4-X-4-X-4-X-----------|
E|-------------------------X-2-X-2-X-2-X-2-X-2-X-2-X-2-X-2-X-2-X-2-X-----------|
  No I won't    be afraid,   no  I     won't   be   afraid	   Just as long
 
  PIANO
e|-------------------------------------------2-------------2-------------2-----|
B|-------------------------------------------2-------------2-------------3-----|
G|-------------------------------------------2-------------2-------------2-----|
D|-----------------------------------------------------------------------------|
A|-----------------------------------------------------------------------------|
E|-----------------------------------------------------------------------------|


           E               A
e|-2-X-2-X-0-X-0-X-0-X-0-X-0-X-0-X-0-X-0-X-0-X-0-|
B|-3-X-3-X-0-X-0-X-0-X-0-X-2-X-2-X-2-X-2-X-2-X-2-|
G|-2-X-2-X-1-X-1-X-1-X-1-X-2-X-2-X-2-X-2-X-2-X-2-|
D|-0-X-0-X-2-X-2-X-2-X-2-X-2-X-2-X-2-X-2-X-2-X-2-|
A|-------X-2-X-2-X-2-X-2-X-0-X-0-X-0-X-0-X-0-X-0-|
E|-------X-0-X-0-X-0-X-0-------------------------|
     As you stand Stand By Me

e|---------0----------------0--------------------|
B|---------0----------------2--------------------|
G|---------1----------------2--------------------|
D|-----------------------------------------------|
A|-----------------------------------------------|
E|-----------------------------------------------|

Same Chords for Chorus, except Lead Guitar and Piano.


************************************

| /   slide up
| \   slide down
| h   hammer-on
| p   pull-off
| ~   vibrato
| +   harmonic
| x   Mute note
| b   Bend
| pb  Pre-bend
| br  Bend release
| pbr Pre-bend release
| brb Bend release bend

************************************
Tap to rate this tab
# A B C D E F G H I J K L M N O P Q R S T U V W X Y Z