John Lennon - Working Class Hero tab

This song is played in regular key (EADGBe)
emphasize the bass strings in the beginning of each measure

h=hammer-on
   Am                   Am
e|-----0--0--0--------|-------0--0--0--0---||
B|-----1--1--1--------|-------1--1--1--1---||
G|-----2--2--2--------|-------2--2--2--2---||
D|-----2--2--2--------|--0h2--2--2--2--2---||
A|-0------------------|--------------------||
E|--------------------|--------------------||

INTRO:
  Am  Am  Am  Am

VERSE 1

   Am             Am         G             Am    Am  Am  Am 
As soon as you're born, they make you feel small

   Am            Am       G          Am   Am  Am  Am 
By giving you no time, instead of it all

         Am         Am            G            Am   Am  Am  Am
'Til the pain is so big, you feel nothing at all

CHORUS

Am            Am      G               Am   Am  Am  Am
Working Class Hero is somethin' to be

Am            G       D              Am  Am   Am  Am
Working Class Hero is somethin' to be


---repeat chords throughout song---

OUTRO: 

       Am         Am         G           Am
If you wanna be a hero, well just follow me

       Am         Am         G           D
If you wanna be a hero, well just follow me

e|-------------0------|-----------0--------||
B|----------1---------|----------1---------||
G|-------2------------|---------2----------||
D|----2---------------|--------2-----------||
A|-0------------------|-------0------------||
E|--------------------|--0-----------------||
Tap to rate this tab
 
# A B C D E F G H I J K L M N O P Q R S T U V W X Y Z