Song name
# A B C D E F G H I J K L M N O P Q R S T U V W X Y Z

John Lennon - Oh My Love tab

                       John Lennon
                       Oh My Love (Imagine)
INTRO:
e-------5-----4-----2-----------------------------------|
B-----3------5-----3-3----2h3p2-------------------------|
G----4--2---6-4---4------2------------------------------|
D---4------6-----4------2-------------------------------|
A--2------4-----2------0--------------------------------|
E-------------------------------------------------------|
VERSE 1 & 2:
e--------------------------------------------------------------|
B--7--7-------5--5-------3---3---------------------------------|
G----7-7--7-----6-6---6-----4-4--------6h7p6-------------------|
D---7---7-7----6---6--6----4---4------7------------------------|
A--5-----5----4-----4----2------2----7-------------------------|
E-----------------------------------5--------------------------|
CHORUS:                        D   A   C#m
e-9-------------|-----------|--2---0----9--9----9--9---------------|
B-10---10--9--7-|--2--6\7\9-|--3---2----9--9----12-12--------------|
G-11------------|-----------|--2---2----10-10---10-10--------------|
D-11---12--9--7-|--4--6\7\9-|--0---2----11-11---9--9---------------|
A-9-------------|-----------|--0---0----11-11---11-11--------------|
E-9-------------|-----------|--0---0----9--9----9--9---------------|
Tap to rate this tab
 
# A B C D E F G H I J K L M N O P Q R S T U V W X Y Z