Song name
# A B C D E F G H I J K L M N O P Q R S T U V W X Y Z

John Lennon - 9 Dream tab

---------------------------------------------------------------------------
		#9 Dream - John Lennon
---------------------------------------------------------------------------
Tabbed by: maguri
Tuning: Standard

John Lennon
#9 Dream (1974)
(Lennon)
From: "Walls and Bridges" and numerous Greatest Hits collections

One of Lennon's sweetest tunes. Large parts of the composition and the production 
sound very much like Harrison - from the slide guitar intro to the chord pattern 
in the chorus and outro recalling "My Sweet Lord".

---------------------------------------------------------------------------

INSTRUMENTAL PART (at the end of chorus 1 and 2)

  D/F#    D/E      D       D/C      G/B     G7/A     G6      G/F
 [guitar]
e|----------------|------2-------5-|--------------3-|------7-------10|
B|--------------3-|----3-------3---|------3-----3---|----8-------8---|
G|------2-----2---|--2-------2-----|--0-4-----4-----|--7-------7-----|
D|----4-----4-----|----------------|5-------3-------|--------0-------|
A|--5-------------|----------------|----------------|7---------------|
E|----------------|----------------|----------------|----------------|
 [bass guitar]
G|----------------|----------------|----------------|----------------|
D|4-------2-------|----------------|----------------|----------------|
A|----------------|5-------3-------|2---------------|----------------|
E|----------------|----------------|--------5-------|3-------1-------|


If you're playing alone and can't separate arpeggio and bass line 
use these voicings:

      e-B-G-D-A-E
D/F#  x-3-2-4-x-x
D/E   x-3-2-2-x-x
D     x-3-2-0-x-x
D/C   x-3-2-x-3-x
G/B   x-0-0-0-2-x
G7/A  x-0-0-3-0-x
G6    x-0-0-2-x-3
G/F   x-0-0-0-x-1

---------------------------------------------------------------------------

INTRO | C | Em | F | E | F | D(7) | F | G(7) |

C  Em      F      E
So-oh long ago
            F     D(7)  F            G
Was it in a dream,        was it just a dream?
     C    Em        F      E
I-hi know-oh, yes I know
          F         D(7)   F              G
Seemed so very real,         it seemed so real to me 

                     G
Took a walk down the street
                           G
Through the heat whispered trees
                  Em(7) A  Em(7) A  Em(7) A   Em(7) A  
I thought I could hear,    hear,    hear,     hear)
Em(7)                  A    Em(7)              A  
  Somebody call out my name    as it started to rain 
Em(7)                   A  
   Two spirits dancing so strange 

Gm        C                 Gm
  Ah! bowakawa pousse, pousse
        C                 Gm
Ah! bowakawa pousse, pousse
        C                | D/F# D/E | D D/C | G/B G7/A | G6 G/F | G/F |
Ah! bowakawa pousse, pousse [INSTRUMENTAL PART]

C  Em         F      E
Dream, dream away
             F     D(7)  F            G
Magic in the air,          was magic in the air?
    C Em           F       E
I believe, yes I believe
              F     D(7)  F            G
More I cannot say,           what more can I say? 

              G
On a river of sound
                      G
Through the mirror go round, round
                  Em(7) A  Em(7) A  Em(7) A   Em(7) A  
I thought I could feel,    feel,    feel,     feel
Em(7)              A     Em(7)                   A  
 Music touching my soul,  something warm, sudden cold
Em(7)                  A   
The spirit dance was unfolding 

Gm        C                 Gm
  Ah! bowakawa pousse, pousse
        C                 Gm
Ah! bowakawa pousse, pousse
        C                | D/F# D/E | D D/C | G/B G7/A | G6 G/F | G/F |
Ah! bowakawa pousse, pousse [INSTRUMENTAL PART]

Gm        C                 Gm
  Ah! bowakawa pousse, pousse
        C                 Gm
Ah! bowakawa pousse, pousse
        C                 Gm
Ah! bowakawa pousse, pousse
        C                 Gm
Ah! bowakawa pousse, pousse

(Fade)
Tap to rate this tab
# A B C D E F G H I J K L M N O P Q R S T U V W X Y Z