John Lennon - Oh My Love tab

#----------------------------------PLEASE NOTE--------------------------------#
#This file is the author's own work and represents their interpretation of the#
#song. You may only use this file for private study, scholarship, or research.#
#-----------------------------------------------------------------------------#


Title: "Oh my love"
Author: John Lennon
Album: Imagine (1971) 

Note: The verse 1 sounds better if you play it exactly like the second one, that is, istead of 

playing a Bm in the 1st and 5th time, play a D chord.

Tuning: Standard
h: hammer on
p: pull off
s: slide


Intro

E |----------2--5-------|-------------4-------|-------------2-------|--------------------|
B |----------3----------|----------5----------|----------3-----3----|----------2h3p2-----|
G |-------4-----2-------|-------6-----4-------|-------4-------------|-------2------------|
D |----4----------------|----6----------------|----4----------------|----2---------------|
A |-2-------------------|-4-------------------|-2-----------2-------|-0--------0---------|
E |---------------------|---------------------|---------------------|--------------------|

Intro with piano

E |----------2--5-------|-------------4-----6-|----------2--5-----4-|--------------------|
B |-------3-------------|----------5--------5-|-------3-------------|----------2h3p2-----|
G |-------------4-------|-------6-----6-----6-|----4--------4-----4-|-------2------------|
D |----4----------------|----6----------------|---------------------|----2---------------|
A |---------------------|-4-------------------|-2-------------------|-0--------0---------|
E |---------------------|---------------------|---------------------|--------------------|


Verse 1

E |-------------2-------|-------------4-------|-------------2-------|--------------------|
B |----------3----------|----------5----------|----------3--3-------|----------2h3p2-----|
G |-------4-------------|-------6-------------|-------4--4----------|-------2------------|
D |-0--4----------------|----6----------------|----4----------------|----2---------------|
A |---------------------|-4-------------------|-2-------------------|-0--------0---------|
E |---------------------|---------------------|---------------------|--------------------|

E |-------------2-------|-------------4-----6-|----------2--5-----4-|--------------------|
B |----------3----------|----------5--------5-|-------3-------------|----------2h3p2-----|
G |-------4-------------|-------6-----6-----6-|----4--------4-----4-|-------2------------|
D |-0--4----------------|----6----------------|---------------------|----2---------------|
A |---------------------|-4-------------------|-2-------------------|-0--------0---------|
E |---------------------|---------------------|---------------------|--------------------|


Chorus 1                                                              ____
                                                                     |1.
E ||---------------------|---------------------|---------------------|---------------------||
B ||--------10--9--7---2-|-6s7s9---------------|-7-------------------|----------5--6-------||
G ||-11------------------|---------------------|-7-------------------|----------6-----6----||
D ||-11-----11--9--7---4-|-6s7s9---------------|-7-------------------|-------7-------------||
A ||---------------------|---------------------|-5-------------------|----7----------------||
E ||---------------------|---------------------|---------------------|-5-------------------||

   ___
  |2.
E |----------------------|
B |-------------5--------|
G |-------6--------6-----|
D |----7-----7--------7--|
A |----------------------|
E |-5--------------------|


Verse 2

E |-------------5-------|-------------4-------|-------------2-------|--------------------|
B |----------7--7-------|----------5----------|----------3--3-------|----------2h3p2-----|
G |-------7-------------|-------6-------------|-------4--4----------|-------2------------|
D |----7----------------|----6----------------|----4----------------|----2---------------|
A |-5-------------------|-4-------------------|-2-------------------|-0--------0---------|
E |---------------------|---------------------|---------------------|--------------------|

E |-------------5-------|-------------4-----6-|----------2--5-----4-|--------------------|
B |----------7--7-------|----------5--------5-|-------3-------------|----------2h3p2-----|
G |-------7-------------|-------6-----6-----6-|----4--------4-----4-|-------2------------|
D |----7----------------|----6----------------|---------------------|----2---------------|
A |-5-------------------|-4-------------------|-2-------------------|-0--------0---------|
E |---------------------|---------------------|---------------------|--------------------|



Chorus 2                                                              ____
                                                                     |1.
E ||---------------------|---------------------|---------------------|---------------------||
B ||--------10--9--7---2-|-6/7/9---------------|-7-------------------|----------5--6-------||
G ||-11------------------|---------------------|-7-------------------|----------6-----6----||
D ||-11-----11--9--7---4-|-6/7/9---------------|-7-------------------|-------7-----------6-||
A ||---------------------|---------------------|-5-------------------|---------------------||
E ||---------------------|---------------------|---------------------|-5-------------------||

   ___
  |2.
E |-------------------------|
B |-------------5-----------|
G |-------6-----------6-----|
D |----7-----7-----7-----7--|
A |-------------------------|
E |-5-----------------------|


Outro

E |-------------5-------|-------------4-----6-|----------2--5-----4-|--------------------|
B |----------7--7-------|----------5--------5-|-------3-------------|----------2h3p2-----|
G |-------7-------------|-------6-----6-----6-|----4--------4-----4-|-------2--2---------|
D |----7----------------|----6----------------|---------------------|----2---------------|
A |-5-------------------|-4-------------------|-2-------------------|-0--------0---------|
E |---------------------|---------------------|---------------------|--------------------|

Enjoy
Tap to rate this tab
 
# A B C D E F G H I J K L M N O P Q R S T U V W X Y Z