Song name
# A B C D E F G H I J K L M N O P Q R S T U V W X Y Z

John Lennon - Stand By Me tab

e|-------------------------------------------------------------------------------------------|
B|-------------------------------------------------------------------------------------------|
G|-------------------------------------------------------------------------------------------|
D|-------------------------------------------------------------------------------------------|
A|--2-3-X-3---2-3-X-3-3-2-0--X-0-0-X-0-0-----------0------2-3-X-3----------------------------|
E|-3-------- 3------------------0--------3-1-X-1-1---3-X-3-----------------------------------|

e|-0--3-5------0---3--------------------0---------0----------0--------------------------------|
B|-----------------------------------1h3--3--1--3----------1---3------------------------------|
G|--------------------------------------------------------------------------------------------|
D|--------------------------------------------------------------------------------------------|
A|----2-3--X-3---2-3--X--3-3-2-0--X--0-------0---------------0--------------------------------|
E|-3-----------3--------------------------0-----3--1-X--1--1---3--X-3-------------------------|


e|---------------------0--3-5------0-3-5------5p3-0-------------------------------------------|
B|-1---1---------------------------------------------3-3-p1--------1h3-1----------------------|
G|--------------------------------------------------------------------------------------------|
D|--------------------------------------------------------------------------------------------|
A|---2-3--X-3-2-3-X--3----2-3-X--3---2-3--X--3----3--2-0-----X--0------0-X--------------------|
E|-3---------3---------3-----------3---------------------------------0------------------------|


e|---------0-------------0------------0--------------------------5-3-8-7-5p3-------5---3-------|
B|---1---3----1--------1---3--------1---3--------1---1-----------------------------------------|
G|-------------------------------------------------------------------0-------------------------|
D|-----------------------------------------------------------------------3---------------------|
A|-0-0-------------------0------------0------------2-3--X--3---2-3------------X--3---2-3-X-3---|
E|-------3-1-----X--1--1---3---X--1-1---3--X---3-3-----------3---------------------3-----------|

e|--------------------------------------0-----------0---------0-------------0------------------|
B|-5p3------3p1-------3--1---------1-3----1-------1---3----------3-1----------3-1--------------|
G|---------------------------------------------------------------------------------------------|
D|---------------------------------------------------------------------------------------------|
A|------3-2-0----X--0----0---X--0--0----------------0------------2-3--X---3---2-3--X--3--------|
E|--------------------0--------------3--1---X--1--1---3--X--3-3-------------3------------------|

(now repeat first again and fade)


Hope enjoy this free finger style song very very easy  ;)
Tap to rate this tab
# A B C D E F G H I J K L M N O P Q R S T U V W X Y Z