Song name
# A B C D E F G H I J K L M N O P Q R S T U V W X Y Z

John Lennon - Salt Water tab

Tabbed by Aaron Quartly
tuning standard (EADGBE)

verse 1:
e|-----------------------------------------------------------------|
B|-----------------------------------------------------------------|
G|-----------------------------------------------------------------|
D|-----------------------------------------------------------------|
A|-----------------------------------------------------------------|
E|-7-7-4-5-4/2-0--7-7-4-5-4-7---7-7-9-9-7-5-4-4-5/7-0--------------|  

e|-----------------------------------------------------------------|
B|-----------------------------------------------------------------|
G|-----------------------------------------------------------------|
D|-----------------------------------------------------------------|
A|-----------------------------------------------------------------|
E|--5-5-5h7-5-4-2-4-5-7-12---3-3-3-2-2-3p0-------------------------|   

Verse 1:


We climb the highest mountains

And I'll be going soon

We're so ingenious we can walk on the moon

but when I hear about the hole in the sky

saltwater welting my eyes

verse 2:
e|-----------------------------------------------------------------|
B|-----------------------------------------------------------------|
G|-----------------------------------------------------------------|
D|-----------------------------------------------------------------|
A|-----------------------------------------------------------------|
E|-7-7-4-5-4/2-0--7-7-4-5-4-7---7-7-12-9-7-5-4-5/7-0---------------|  

e|-----------------------------------------------------------------|
B|-----------------------------------------------------------------|
G|-----------------------------------------------------------------|
D|-----------------------------------------------------------------|
A|-----------------------------------------------------------------|
E|--5-5-5h7-5-4-2-4-5-7-12---3-3-3-2-2-3p0-------------------------|   

Verse 2:


We climb the highest mountains

And I'll be going soon

We're so ingenious we can walk on the moon

but when I hear about the hole in the sky

saltwater welting my eyes



thats all i know if anyone has any questions contact me at aaronq@quartly.net or homer26791
Tap to rate this tab
 
# A B C D E F G H I J K L M N O P Q R S T U V W X Y Z