Song name
# A B C D E F G H I J K L M N O P Q R S T U V W X Y Z

John Mark Mcmillan - Setting Suns tab

-----------------------------------------------------------------------------
			     Setting Suns - John Mark McMillan
-----------------------------------------------------------------------------
Tabbed by: Sharif Jamaldin

Tuning: Standard

e|-----5------5------5---/12---------5-------5------5--/12------|
B|--7-----5------7--------------7h8------5------8---------------|
G|--------------------------------------------------------------|
D|--------------------------------------------------------------|
A|--------------------------------------------------------------|
E|--------------------------------------------------------------|

e|---5---5----5-----------5-----5-----5-----------------|
B|-----5--------5------------5-----------5--------------|
G|-7-------7-----------6-----------6--------------------|
D|------------------------------------------------------|
A|------------------------------------------------------|
E|------------------------------------------------------|
Tap to rate this tab
 
# A B C D E F G H I J K L M N O P Q R S T U V W X Y Z