Song name
# A B C D E F G H I J K L M N O P Q R S T U V W X Y Z

John Mark Mcmillan - How He Loves tab

http://www.youtube.com/watch?v=HiuPcrW01zo

How He Loves (Electric)
John Mark McMillan

Intro (With Slide)
Bm

-------------------------------------------------------------------|
-------------------------------------------------------------------|
-----8-------------------------------------------------------------|
--9----4-9-8-9--/9--/8--/1-/9--/8--/1--/4----/9--/8--/1--/9-9-9-9--|
-------------------------------------------------------------------|
-------------------------------------------------------------------|

Verse 1
Bm                            G#m
He is jealous for me, Loves like a hurricane, I am a tree,
F#                                                                    E
Bending beneath the weight of his wind and mercy.
Bm                                                                 G#m
When all of a sudden, I am unaware of these afflictions eclipsed by glory,
          F#                                                                   E
And I realize just how beautiful You are, And how great Your affections are for me.

Pre Chorus
       Bm                            G#m
And oh, how He loves us so,
                  F#m
Oh how He loves us,
                             E
How He loves us all

Break
------------------------------------------------------|
------------------------------------------------------|
------------------------------------------------------|
-/9--/8--/1----/9--/8--/1--/4-----/9--/8--/1--/9------|
------------------------------------------------------|
------------------------------------------------------|

Chorus (2x)
                 Bm
Yeah, He loves us,
                         G#m
Whoa! how He loves us,
                         F#m
Whoa! how He loves us,
                        E
Whoa! how He loves.

Break 1
---------[--------------------------------------]-------|
17-17-17-[-16-16-16-16-16-16--11-11-11-12-12-12-]--(2x)-|
---------[--------------------------------------]-------|
---------[--------------------------------------]-------|
---------[--------------------------------------]-------|
---------[--------------------------------------]-------|


--------------------------------------------------------------------------|
-17-17-17-16-16-11-11-11-12-12-12--------16-16-16---16-----16----16----12-|
---------------------------------11-11-11--------------11-----11----11----|
--------------------------------------------------------------------------|
--------------------------------------------------------------------------|
--------------------------------------------------------------------------|

Verse 2
We are His portion and He is our prize,
Drawn to redemption by the grace in His eyes,
If grace is an ocean, we’re all sinking.
So Heaven meets earth like an unfortunate kiss,
And my heart turns violently inside of my chest,
I don’t have time to maintain these regrets,
When I think about, the way

Chorus (2x)

Break (3x)
Bm
Whoa------Whaa---oh
G#m
Whoa------Whaa---oh
F#m
Whoa------Whaa---oh
E
Whoa------Whaa---oh

-------------------------------------14-14-14-14--------|
-12-12-12-12-12-12-12-12-14-14-14-14--------------------|
--------------------------------------------------------|
--------------------------------------------------------|
--------------------------------------------------------|
--------------------------------------------------------|
Tap to rate this tab
 
# A B C D E F G H I J K L M N O P Q R S T U V W X Y Z