Song name
# A B C D E F G H I J K L M N O P Q R S T U V W X Y Z

John Mark Mcmillan - Dress Us Up tab

John Mark McMillan
Dress us up
From "The Medicine"

Intro: C  F

Verse 1
C                                             
Dress us up in Your righteousness
F                                      
Bring us in with a ring and a kiss
                    Am7
When You walk into the room You know I can't resist
             Gsus                                         F
Every bottle of perfume always ends up on the floor in a mess


Verse 2
C
You make us sparkle and You make us shine
         F
Like stars who sing on Your chorus lines
Am7
Through space and time we'll harmonize
Gsus                                         F              C
Where deep meets deep like the ocean meets the sky         Yeah


Pre-Chorus
                F   F5/B  F
The sun and the moon
                                      C
They come out of their grave just for You
F
The dead man and the cynical too
They're coming out of their grave
                  G
And it's just for you


Chorus
F
Cause the love of God is stronger
C
The love of God is stronger
G
The love of God is stronger than the power of death

F
Cause the love of God is stronger
C
The love of God is stronger
Dm7
The love of God is stronger
          G
Than the power of death


Verse 3
Dress us up in the blood of a Son
Who opened up His veins so that we could overcome
Hell and the grave in the power of His love
After three dark days He showed us how it's done
And He still does

Verse 2


Pre-Chorus
Chorus


C
His love is stronger, stronger. His love is stronger, stronger
              F
His love is stronger, stronger. His love is stronger, stronger



Verse - Over and over, dotted 1/8th for the entire song
e|---------------------------------------------------------------------|
B|---------(8)---------------8--6--6--5--------------------------------|
G|--7h9-9---------------Gtr2-9--7--7--5--------------------------------|
D|---------------------------------------------------------------------|
A|---------------------------------------------------------------------|
E|---------------------------------------------------------------------|


"When you walk into the room"
e|---------------------------------------------------------------------|
B|---------------------------------------------------------------------|
G|--5-7s9-7-5-5~~~~---5-7s9-7-5-4-----------0h2h4-0-2------------------|
D|---------------------------------5--0----------------3---------------|
A|--------------------------------------------------------3------------|
E|---------------------------------------------------------------------|



For the pre-chorus and chorus, I play the F and G chords in the D position
    F   F5/B  C   G   Dm
e|------------8-------5--|    
B|--6---6-----5---8---6--|     
G|--5---4-----5---7---7--|   
D|--3---3-----5---5---7--|    
A|--3---3-----x---5---x--|     
E|-----------------------|     



Chad Miller
http://freetoliveforyou.blogspot.com/
Tap to rate this tab
 
# A B C D E F G H I J K L M N O P Q R S T U V W X Y Z