Song name
# A B C D E F G H I J K L M N O P Q R S T U V W X Y Z

John Mark Mcmillan - I Need You In The Morning tab

John Mark McMillan
I Need You in the Morning
From "Hope Anthology Volume 1"

Intro
E5 - G - D - A


Verse 1
     D           D/C#        D/C          D/B
You step into my emptiness until it's all gone
     D/Bb            D/A                 D/Ab             D/G
You slide into my starless night and You shine like the sun
     D               D/C#         D/C                D/B
You chase away the loneliness whenever You come around
        D/Bb                 D/A                D/Ab             D/G
so come on and take off Your camouflage Lord and let me see You now


Pre-Chorus
Bm      Bmsus      Bm     Bmsus  Asus4   A    Asus4   A    
I just want You to hang around, I just want You to stay
Bm     Bmsus       Bm    Bmsus      G          A
I just want You to hang around and stay, and stay


Chorus 1
                  E5                          G
I need You in the morning, I need You in the evening
     D                 A
and when the sun goes down
                  E5                          G
I need You in the daytime, I need You in the nighttime
     D                 A
and when the sun goes down


Verse 1, Pre-Chorus, Chorus x2


Intro chords "Na-Na-Na-Na-Na's" 


Outro
E5                          G
It's getting cold outside, it's getting dark outside
D                             A
Sit by the fire of Your eyes, sit by the fire of Your eyes
E5                          G
It's getting cold outside, it's getting dark outside
D                             A
Sit by the fire of Your eyes…


Intro - Solo
e|---------------------------------------------------------------------|
B|---------------------------------------------------------------------|
G|---------------------------------------------------------------------|
D|--2s4-2-4-2-0---0h2h4-2-4s7-4-2---4-2-4-2-0--------------------------|
A|---------------------------------------------4-5-4-2-0---------------|
E|---------------------------------------------------------------------|

During the solo, move up to the G string on the 11th fret position. 

For the pre-chorus, this is what the lead is playing:
  Bm Bm/sus         A  Asus4
e|--0-----|      e|--0-----|
B|--0-----|      B|--0-----|
G|--7--6--|      G|--7--6--|
D|--7--7--|      D|--7--7--|
A|--x--x--|      A|--x--x--|
E|--7--7--|      E|--5--5--|



Chad Miller
http://freetoliveforyou.blogspot.com/ 
Tap to rate this tab
# A B C D E F G H I J K L M N O P Q R S T U V W X Y Z