John Mark Mcmillan - Who Can See tab

John Mark McMillan
Who can see
From "Hope Anthology Volume 1"


Intro
E - Eb/E - C#m - B/Eb


Verse x4
E        Eb/E     C#m           B/Eb
Make my chest a place where Your heart can rest


Chorus
Asus
Who can see the Lord?
F#m/Asus
Who can see the Lord?
Asus
Who can see the Lord?
F#m/Asus
the one whose hands are clean, and heart is pure

Intro x2

Verse x4
Chorus

Intro (with riff 2) x4
Intro x4

Chorus
repeat last line "the one whose hands are clean"
3x before "and heart is pure"

Intro riff to end



Intro riff
e|--12--11------9--------12--11-----9----------------------------------|
B|-----------12---9--------------12---9------12------------------------|
G|----------------------------------------11---------------------------|
D|---------------------------------------------------------------------|
A|---------------------------------------------------------------------|
E|---------------------------------------------------------------------|

e|--12--11-----9-------------------------------------------------------|
B|----------12---9-------12-9------------------------------------------|
G|-------------------11------------------------------------------------|
D|---------------------------------------------------------------------|
A|---------------------------------------------------------------------|
E|---------------------------------------------------------------------|



Riff 2
e|---------------------------------------------------------------------|
B|------7----9~~~-------12----9~~~-------------------------------------|
G|--7s9----9--------7s9-----9------------------------------------------|
D|---------------------------------------------------------------------|
A|---------------------------------------------------------------------|
E|---------------------------------------------------------------------|

or

e|---------------------------------------------------------------------|
B|----------------------------12---------------------------------------|
G|--------11-----13~~~--------------13~~~------------------------------|
D|--12s14-----14--------12s14----14------------------------------------|
A|---------------------------------------------------------------------|
E|---------------------------------------------------------------------|



For the chords, play the bar chord E on the 7th fret, then:
Eb/E
e|-----
B|-----
G|--8--
D|--9--
A|--6--
E|-----

C#m bar chord on the 4th fret

B/Eb - Bass plays Eb note, guitar plays bar chord B on the 7th fret.

For the Asus in the chorus, I play:
e|--0--
B|--0--
G|--6--
D|--7--
A|--0--
E|-----

For F#m/Asus the bass plays the F# note and I play:
e|--0--
B|--0--
G|--6--
D|--7--
A|--9--
E|-----


Chad Miller
http://freetoliveforyou.blogspot.com/ 
Tap to rate this tab
 
# A B C D E F G H I J K L M N O P Q R S T U V W X Y Z