Song name
# A B C D E F G H I J K L M N O P Q R S T U V W X Y Z

John Mark Mcmillan - How He Loves tab

-----------------------------------------------------------------------------
                 How He Loves - John Mark Mcmillan
-----------------------------------------------------------------------------
Tabbed by: bearsafety (Revolution Comm. Church Logansport Indiana)
E-mail: bearsafety@yahoo.com

Tuning: Standard
Lead guitar parts

Delay,reverb,& Overdrive effects
He also uses a Slide but I dont.
This is what I play to imitate his live recordings


e|-11v-|
B|--x--| Use a lot of delay type feedback.
G|-11v-|
D|-----|
A|-----|
E|-----|

e|---------------------------0-(0)--|
B|---------------------------4-(4)--|
G|-4-3-----4-3------4-3------4-(4)--|
D|-----1-------1/4------1/4--4-(4)--|
A|----------------------------------|
E|----------------------------------|

This part is THICK with a slide sound.. so just do your best to imitate
e|-------------------------|
B|------4(4)-5(5)----7-7\5-|
G|--4(4)---------4/6-------|  A lot of delay and reverb 
D|-------------------------|
A|-------------------------|
E|-------------------------|

  Power chord chorus
e|-----------------|
B|-----------------|
G|-4-----------1---|
D|-4---6---4---2---|
A|-2---6---4---2---|
E|-----4---2---0---|

  Instrumental breakdown
e|---12-12-12-11-11-11-------------------|     -0v--(0)---|
B|-12------------------11-11-11-12-12-12-|     -12v-(12)--|
G|---------------------------------------|x3   -11v-(11)--|
D|---------------------------------------|     -----------|
A|---------------------------------------|     -----------|
E|---------------------------------------|     -----------|


e|--------------------------7A-11A-14A--7A-11A-14A-12-|
B|-------------------------------------------------12-|
G|-4A-6A/11A--4A-6A/11A-9A----------------------------|
D|----------------------------------------------------|
A|----------------------------------------------------|
E|----------------------------------------------------|


************************************

| /   slide up
|( )  Let the note ring out
| \   slide down
| ~   vibrato
| x   Mute note
| A   Fast Alternative picking
************************************
Tap to rate this tab
# A B C D E F G H I J K L M N O P Q R S T U V W X Y Z