Song name
# A B C D E F G H I J K L M N O P Q R S T U V W X Y Z

John Martyn - Couldnt Love You More tab

John Martyn - Couldn't Love You More


A simple rendition of John Martyn's "Couldn't Love You More" which
is one of his best songs imo.

He tunes his guitar to CFCGgd when he plays the acoustic version
and I wanted to find a way to play it in regular tuning in order to
evade tuning my guitar every time I want to play it. This was tabbed
on a classical guitar but I hope it sounds just as good on a different one.

Listen to the song to get the rythm down, I didn't tab the exact timing
of the notes.


(h) Hammer On  (p) Pull Off  (b) Bend


E|---------------------------------------|
B|--3--2----0-----------0------0----0----|
G|--2--2----2h4---------4p2----2----2----|
D|--0--0---------------------------------|
A|---------------------------------------|
E|-------x--3---3--x--3-----x--2--2------|

E|---------------------------------------|
B|--3--2----0------------2b~-----0----0--|
G|--2--2----2h4---------4--------2----2--|
D|--0--0---------------0-----------------|
A|---------------------------------------|
E|-------x--3---3--x--3-------x--2--2----|

Hope you enjoy!
Tap to rate this tab
# A B C D E F G H I J K L M N O P Q R S T U V W X Y Z