Song name
# A B C D E F G H I J K L M N O P Q R S T U V W X Y Z

John Maus - Believer tab

Sorry this is in c standard. I was too lazy to change everything.
you may have to transpose.

 synth part
-------------------------------------------------------------------------|
------------------------------------13----13---13------------------------|
-14----12--------------12-----14-----------------------------------------|
----15----14-----15------------------------------------------------------|
--------------15----15----15-----15----15----15--------------------------|
-------------------------------------------------------------------------|

-------------------------------------------------------------------------|
------------------------------------13----13---13------------------------|
-14----12--------------12-----14-----------------------------------------|
----15----14-----15------------------------------------------------------|
--------------15----15----15-----15----15----15--------------------------|
-------------------------------------------------------------------------|

-------------------------------------------------------------------------|
-------------------------------------------------------------------------|
----14-----14-----12-----12----------------------------------------------|
--------------------------------15----15------14-----14------------------|
-13----13-----13-----13------13----13-----13-----13----------------------|
-------------------------------------------------------------------------|

-------------------------------------------------------------------------|
-------------------------------------------------------------------------|
----14-----14-----12-----12----------------------------------------------|
--------------------------------15----15------14-----14------------------|
-15----15-----15-----15------15----15-----15-----15----------------------|
-------------------------------------------------------------------------|
Tap to rate this tab
 
# A B C D E F G H I J K L M N O P Q R S T U V W X Y Z