Song name
# A B C D E F G H I J K L M N O P Q R S T U V W X Y Z

John Mayall - You Dont Love Me tab

YOU DON’T LOVE ME – JOHN MAYALL & THE BLUESBREAKERS (A#)
http://www.youtube.com/watch?v=6A5j8vJUp7w
  
      

Main Riff 

e|------------------------------------------------------------------|
B|------------------------------------------------------------------|
G|------------------------6~----------------------------------------|
D|----6---8--8p6h8--8p6h8-------6---6--8-8p6------------------------|
A|-/8---8---------------------8---8----------8p6--------------------|
E|------------------------------------------------9—6~--------------|

e|------------------------------------------------------------------|
B|------------------------------------------------------------------|
G|------------------------6~----------------------------------------|
D|----6---8--8p6h8--8p6h8-------6---6--8-8p6------------------------|
A|-/8---8---------------------8---8----------8p6--------------------|
E|------------------------------------------------9—6~--------------|


e|------------------------------------------------------------------|
B|----------x--7-7-7-7—-7~~7--7-7-7-7-------------------------------|
G|----------x--6-6-6-6—-6~~6--6-6-6-6-------------------------------|
D|----------x--5-5-5-5—-5~~5--5-5-5-5-------------------------------|
A|---4-4/6--x--6-6-6-6—-6~~6--6-6-6-6-------------------------------|
E|-6----------------------------------------------------------------| 
                 D#7#9  

e|------------------------------------------------------------------|
B|------------------------------------------------------------------|
G|------------------------6~----------------------------------------|
D|----6---8--8p6h8--8p6h8-------6---6--8-8p6------------------------|
A|-/8---8---------------------8---8----------8p6--------------------|
E|------------------------------------------------9—6~--------------|




e|------------------------------------------------------------------|
B|----------x--7-7-7-7—-7~~7--7-7-7-7-------------------------------|
G|----------x--6-6-6-6—-6~~6--6-6-6-6-------------------------------|
D|----------x--5-5-5-5—-5~~5--5-5-5-5-------------------------------|
A|---4-4/6--x--6-6-6-6—-6~~6--6-6-6-6-------------------------------|
E|-6----------------------------------------------------------------| 
                 D#7#9  



e|------------------------------------------------------------------|
B|------------------------------------------------------------------|
G|------------------------6~----------------------------------------|
D|----6---8--8p6h8--8p6h8-------6---6--8-8p6------------------------|
A|-/8---8---------------------8---8----------8p6--------------------|
E|------------------------------------------------9—6~--------------|

e|------------------------------------------------------------------|
B|----------x-9-9-9-9-----------------------------------------------|
G|----------x-8-8-8-8-x-8-7-6---------------------------------------|
D|----------x-7-7-7-7-x-7-6-5---------------------------------------|
A|---4-4/8--x-8-8-8-8-x-8-7-6---------------------------------------|
E|-6----------------------------------------------------------------|
          F7#9     F7/E7/D#7

RINSE AND REPEAT

12 Bar ‘You Don’t Love Me’ Blues Jam (For Extended Improv)

| = one bar

    A#7     D#7       A#7      F7       D#7       A#7
   ||||      ||        ||       |        |        ||

e|------------------------------------------------------------------|
B|------------------------------------------------------------------|
G|------------------------------------------------------------------|
D|------xx666--------xx666--------xx666--------xx666----------------|
A|------xx555--------xx555--------xx555--------xx555----------------|
E|-/6---xx666---/6---xx666---/6---xx666---/6---xx666----------------|
          |            |            |            |
         A#7          A#7          A#7          A#7
e|------------------------------------------------------------------|
B|------------------------------------------------------------------|
G|------xx666--------xx666------------------------------------------|
D|------xx555--------xx555--------xx666--------xx666----------------|
A|-/6---xx666---/6---xx666--------xx555--------xx555----------------|
E|---------------------------/6---xx666---/6---xx666----------------|
          |            |            |            |
         D#7          D#7          A#7          A#&
e|------------------------------------------------------------------|
B|------------------------------------------------------------------|
G|------xx888--------xx666------------------------------------------|
D|------xx777--------xx555--------xx666--------xx666----------------|
A|-/8---xx888---/6---xx666--------xx555--------xx555----------------|
E|---------------------------/6---xx666---/6---xx666----------------|
          |            |            |            |
         F7           D#7          A#7          A#7


© Michael Cunningham 2011

http://cunningblogham.blogspot.com/

Tap to rate this tab
 
# A B C D E F G H I J K L M N O P Q R S T U V W X Y Z