Song name
# A B C D E F G H I J K L M N O P Q R S T U V W X Y Z

John Mayalls Bluesbreakers - Steppin Out tab

--------------------------------------------------------------------------------
          STEPPIN’ OUT – John Mayall’s Bluesbreakers with Eric Clapton
                                (James Bracken)
--------------------------------------------------------------------------------

Tabbed by: varannion
Email:     dm_hughes1@hotmail.com

Tuning: standard


          bss   bss                                  co
      Gm
e|-----------------------|------------------------|---------------------------|
B|-----------------------|------------------------|---------------------------|
G|--------3-----3--5--3--|--5b7--5--3--5--3-------|---------------------------|
D|----/5-----5-----------|-------------------5p3--|--5----5--(5)--0--3--0--3--|
A|-----------------------|------------------------|---------------------------|
E|-----------------------|------------------------|---------------------------|


                                bss   bss
                            Dm
e|-----------------------|---------------------|-----------------------|
B|-----------------------|---------------------|-----------------------|
G|-----------------------|---------------------|-----------------------|
D|----5----5--(5)\-------|------3-----3--5--3--|--5b7--5--3--5p3-------|
A|-----------------------|--/5-----5-----------|------------------5p3--|
E|-----------------------|---------------------|-----------------------|


                                                            bss   bss
                                                        Gm
e|-----------------------------|---------------------|---------------------|
B|-----------------------------|---------------------|---------------------|
G|-----------------------------|---------------------|------3-----3--5--3--|
D|-----------------------------|---------------------|--/5-----5-----------|
A|----5----5--(5)--0--3--0--3--|--5----5--(5)\-------|---------------------|
E|-----------------------------|---------------------|---------------------|


                               co                          co

e|--------------------------|---------------------------|-----------------------|
B|--------------------------|---------------------------|-----------------------|
G|----5b7--5--3--5--3-------|---------------------------|--------------------3--|
D|---------------------5p3--|--5----5--(5)--0--3--0--3--|--5----5--(5)\--/5-----|
A|--------------------------|---------------------------|-----------------------|
E|--------------------------|---------------------------|-----------------------|


        ~~~~~                              bss   bss         bss
      Gm
e|--------------------------|--------------------------|-----------------------|
B|--------------------------|-------\3-----------------|-----------------------|
G|----5b7-------------------|--(7)------5--3--5--3-----|-----3-----------------|
D|--------------------------|-----------------------5--|--5--------------------|
A|--------------------------|--------------------------|-----------------------|
E|--------------------------|--------------------------|-----------------------|


        rake     ~~~~~~      ~~~~~~                ~~~~~~
                            C
e|------x--x-------------|---------------------|---------------------|
B|------x--8----(8)------|--(8)----------------|--(8)----------------|
G|-----(0)---------------|---------------------|---------------------|
D|-----------------------|---------------------|---------------------|
A|-----------------------|---------------------|---------------------|
E|-----------------------|---------------------|---------------------|


                                                            ~~~
      Gm                                                D
e|----8b10--6b7----------|---------------------------|---------------------|
B|-----------------------|--11b13r11--8-----8-10b12--|------8--10----------|
G|-----------------------|---------------9-----------|---------------------|
D|-----------------------|---------------------------|---------------------|
A|-----------------------|---------------------------|---------------------|
E|-----------------------|---------------------------|---------------------|


                      bss        co      co
      C                     Gm
e|-----------------------|--------------------|-----------------3-------------------|
B|-----------------------|---------------3----|--------------3----------------------|
G|------10\5----5-----3--|-------3--5b7-------|----5b7--(7)--------5b7--(7)r5p3-----|
D|-----------------5-----|--5-----------------|----------------------------------5--|
A|-----------------------|--------------------|-------------------------------------|
E|-----------------------|--------------------|-------------------------------------|




e|-----------------------------|--------------------------------|
B|-------------------------6---|--6--6--6----------------(5)----|
G|----5--3-----------5/7--(7)--|-----------7\5p3--5p3-----5--3--|
D|----------5--3--5------------|-----------------------5--------|
A|-----------------------------|--------------------------------|
E|-----------------------------|--------------------------------|

                                    rake
                         bss        co     co                 co   ~~~~
                                                      C
e|--------------------------|-------x--------------|----------10----------|
B|--------------------------|-------8------8-------|--10h12--(12)--8------|
G|-------3b4----------------|-------x--------------|----------------------|
D|----5-------5-------------|----------------------|----------------------|
A|--------------5\3p1--3p1--|----------------------|----------------------|
E|--------------------------|--3-------------------|----------------------|


                  co     co                                  co
                                         Gm
e|------------------------------------|-----------------------------|
B|----11b13-(13)-11--8--10-----8--10--|--10b11r10p8--(8)----10------|
G|--------------------------9---------|-----------------------------|
D|------------------------------------|-----------------------------|
A|------------------------------------|-----------------------------|
E|------------------------------------|-----------------------------|


          pb                 co             bss     bss
                                   D
e|------------------------------|-----------------------|
B|-------(13)15r13p11-13----11--|--13b15----11------11--|
G|-----------------------12-----|---------------12------|
D|------------------------------|-----------------------|
A|------------------------------|-----------------------|
E|------------------------------|-----------------------|


        hold bend rpb                       bss  pb              bss
                                        Gm
e|-----------13----------------------|-------------------------------|
B|----13b15------(15)--13p11---------|------11--(13)15r13p11-13--15--|
G|----------------------------12p11--|--12---------------------------|
D|-----------------------------------|-------------------------------|
A|-----------------------------------|-------------------------------|
E|-----------------------------------|-------------------------------|


                              co                          pb

e|-------------------------|---------------------|------------------------------|
B|-------------------------|---------------------|---------------------------3--|
G|------5b7r5p3-5--3-------|---------------------|--3--5-(5)6r5p3--5--3-5b7-----|
D|--------------------5p3--|--5------5-----3--5--|------------------------------|
A|-------------------------|------------5--------|------------------------------|
E|-------------------------|---------------------|------------------------------|


          bss     ~~~ co                                                        bss
                                                       C
e|----3------------------|--------------------------|------------------------------|
B|-----------------------|-------3--6--3------3--6--|--3---------------------------|
G|-------3------------3--|--5b7----------5b7--------|-----5b7--5--3--5p3-----5--3--|
D|----------5--3--5------|--------------------------|---------------------5--------|
A|-----------------------|--------------------------|------------------------------|
E|-----------------------|--------------------------|------------------------------|


      rake        bss            rake        bss           rake         bss
                              Gm
e|----3--------------------|-----3--------------------|-----3--------------------|
B|-----3-------------------|------3-------------------|------3-------------------|
G|------3------5--3--------|-------3------5--3--------|-------3------5--3--------|
D|----------5--------5--3--|--5--------5--------5--3--|--5--------5--------5--3--|
A|-------------------------|--------------------------|--------------------------|
E|-------------------------|--------------------------|--------------------------|


         rake        bss              co                  bss
      D                                                Gm
e|-------3-------------------|----------------------|------------------------|
B|--------3------------------|--------8--6----------|------------------------|
G|---------3------5--3--5/7--|--(7)---------7\5--3--|-----3------------------|
D|----5--------5-------------|----------------------|--5-----5---------------|
A|---------------------------|----------------------|-----------5\3p1--3-----|
E|---------------------------|----------------------|---------------------3--|


      co                   co                       co

e|----------------------|------------------------|------------------------|
B|----------------------|------------------------|------------------------|
G|----------------------|------------------------|------------------------|
D|----------------------|---------5--(5)--3------|---------5--(5)--3------|
A|----1----3--(3)p1-----|------------------------|------------------------|
E|-------------------3--|--3---------------------|--3---------------------|


      co                       co                       co
                                                        C
e|--------------------------|------------------------|------------------------|
B|--------------------------|------------------------|------------------------|
G|--------------------------|------------------------|---------5--(5)--3------|
D|-----------5--(5)--3------|---------5--(5)--3------|------------------------|
A|--------------------------|------------------------|--3---------------------|
E|----3---------------------|--3---------------------|------------------------|


      co                       co                       co
                               Gm
e|--------------------------|------------------------|------------------------|
B|--------------------------|------------------------|------------------------|
G|-----------5--(5)--3------|------------------------|------------------------|
D|--------------------------|---------5--(5)--3------|---------5--(5)--3------|
A|----3---------------------|------------------------|------------------------|
E|--------------------------|--3---------------------|--3---------------------|


      co                        co                      co
      D                         C                       Gm
e|--------------------------|------------------------|------------------------|
B|--------------------------|------------------------|------------------------|
G|-----------7--(7)--5------|----------5--(5)--3-----|------------------------|
D|--------------------------|------------------------|---------5--(5)--3------|
A|----5---------------------|---3--------------------|------------------------|
E|--------------------------|------------------------|--3---------------------|


                                 ~~~~                ~~~~

e|--------------------------|-------------------|-------------------|
B|--------------------------|-------------------|--6/8--------------|
G|--------------------------|--5/7--------------|-------------------|
D|-----------5--(5)--3------|-------------------|-------------------|
A|--------------------------|-------------------|-------------------|
E|----3---------------------|-------------------|-------------------|


                                                       co
                                                      C
e|---------------------|---------------------------|----------------------|
B|----11b12------------|------13b15--(15)--13--11--|--13--11--(11)--------|
G|---------------------|---------------------------|----------------------|
D|---------------------|---------------------------|----------------------|
A|---------------------|---------------------------|----------------------|
E|---------------------|---------------------------|----------------------|


                  rpb   rpb      rpb  rpb       rpb
                                Gm
e|---------------------------|-----------------------|----------------------------|
B|------11b13----(12)--(13)--|--(12)-(13)r(12)-(13)--|-r(12)----------------11----|
G|---------------------------|-----------------------|--------12--(12)--12--------|
D|---------------------------|-----------------------|----------------------------|
A|---------------------------|-----------------------|----------------------------|
E|---------------------------|-----------------------|----------------------------|


              bss      hold bend         rpb                  bss
      D                        C
e|--------------------------|-------13---------------------------|
B|----13b15--11------13b15--|-(15)------(15)r13--11--13------11--|
G|--------------------------|----------------------------12------|
D|--------------------------|------------------------------------|
A|--------------------------|------------------------------------|
E|--------------------------|------------------------------------|


       ~~~~  bss       ~~~~~~
      Gm
e|----------------15-----|-(15)--------15----------|
B|----------11----18b20--|-(20)------------18--15--|
G|----12-----------------|-------------------------|
D|-----------------------|-------------------------|
A|-----------------------|-------------------------|
E|-----------------------|-------------------------|


                                                                               co

e|-----------15---------------------------|-----------------------------------------|
B|----18b20------18--15-------------------|--------------------15-------------------|
G|----------------------17b19-17--15------|--17------15-17b19------17p15------17----|
D|------------------------------------17--|------17-----------------------17--------|
A|----------------------------------------|-----------------------------------------|
E|----------------------------------------|-----------------------------------------|


       pb                bss              rpb      rpb   rpb   rpb

e|------------------------------|--18b20-(19)b20--(20)--(19)--(20)--|
B|------------------------------|-----------------------------------|
G|----(19)r17p15--------15------|-----------------------------------|
D|---------------17-17----------|-----------------------------------|
A|------------------------------|-----------------------------------|
E|------------------------------|-----------------------------------|


       rpb      rpb
      C
e|----(19)b20--(19)----15-----------|------------------------------------------------|
B|-------------------------18p15----|-----------------------------------15h18p15-----|
G|----------------------------------|--17b19r17p15--17p15-----15h17b19-----------17--|
D|----------------------------------|---------------------17-------------------------|
A|----------------------------------|------------------------------------------------|
E|----------------------------------|------------------------------------------------|



      Gm
e|---------------------------------------|------------------------------|
B|----15---------------------------------|--------15b17--(17)--r(16)----|
G|--------17b19r17p15------15h16---------|------------------------------|
D|---------------------17---------17-----|------------------------------|
A|-----------------------------------17--|--(17)------------------------|
E|---------------------------------------|------------------------------|


           co
      D                               C
e|---------------------------------|--------------------------|
B|---(16)b17------15-(15)------15--|----17b19--17p15------15--|
G|-------------------------17------|------------------17------|
D|---------------------------------|--------------------------|
A|---------------------------------|--------------------------|
E|---------------------------------|--------------------------|


                  co      ~~~~             rpb  rpb  rpb        rpb  rpb  rpb

e|-------------------------------|---------------------------------------------|
B|-----------15------------------|--18b20-(20)-(20)-(20)-18b20-(20)-(20)-(20)--|
G|----15h16----------------------|---------------------------------------------|
D|---------------17--15--17------|---------------------------------------------|
A|-------------------------------|---------------------------------------------|
E|-------------------------------|---------------------------------------------|


                rpb     rpb   rpb   bss    pb      co         co

e|-------------------------------------|-----------------------------------------|
B|----18b20----(20)----(19)--(20)--18--|--(18)20--18--15---------------------15--|
G|-------------------------------------|------------------17b19--17--15--17------|
D|-------------------------------------|-----------------------------------------|
A|-------------------------------------|-----------------------------------------|
E|-------------------------------------|-----------------------------------------|


                           ~~~~          rake      ~~~~                 ~~~~
                                                           C
e|----------------------------|---------(0)-------------|----------------------|
B|----------------------------|----------0---8--8--8----|--10b11---r10--8------|
G|----15h17p15------------15--|--(15)----9--------------|----------------------|
D|-------------17-----17------|-------------------------|----------------------|
A|-----------------17---------|-------------------------|----------------------|
E|----------------------------|-------------------------|----------------------|



                                        Gm
e|----10b12--10--8-------------------|-----------10---------------|
B|------------------11--8--10-----8--|--10b12----------10b12------|
G|-----------------------------9-----|----------------------------|
D|-----------------------------------|----------------------------|
A|-----------------------------------|----------------------------|
E|-----------------------------------|----------------------------|


           pb                     co    co                             bss
                                  D                         C
e|-----------------------------|-------------------------|----------------------|
B|--------(10)11-r10p8--10-----|--8----10--10b12---------|----------------------|
G|--------------------------9--|----------------------0--|----3--5--0--3--0-----|
D|-----------------------------|-------------------------|-------------------3--|
A|-----------------------------|-------------------------|----------------------|
E|-----------------------------|-------------------------|----------------------|


      co
      Gm
e|-----------------------|-----------------------|
B|-----------------------|-----------------------|
G|----5------------------|-----------------------|
D|-----------------------|-----------------------|
A|-----------------------|-----------------------|
E|-----------------------|-----------------------|


          bss   bss                                  co
      Gm
e|-----------------------|------------------------|---------------------------|
B|-----------------------|------------------------|---------------------------|
G|--------3-----3--5--3--|--5b7--5--3--5--3-------|---------------------------|
D|----/5-----5-----------|-------------------5p3--|--5----5--(5)--0--3--0--3--|
A|-----------------------|------------------------|---------------------------|
E|-----------------------|------------------------|---------------------------|


      co                        bss   bss
                            Dm
e|-----------------------|---------------------|------------------------|
B|-----------------------|---------------------|------------------------|
G|-----------------------|---------------------|------------------------|
D|----5----5--(5)\-------|------3-----3--5--3--|--5b7--5--3--5--3-------|
A|-----------------------|--/5-----5-----------|-------------------5p3--|
E|-----------------------|---------------------|------------------------|


      co                          co                        bss   bss
                                                        Gm
e|-----------------------------|---------------------|---------------------|
B|-----------------------------|---------------------|---------------------|
G|-----------------------------|---------------------|------3-----3--5--3--|
D|-----------------------------|---------------------|--/5-----5-----------|
A|----5----5--(5)--0--3--0--3--|--5----5--(5)\-------|---------------------|
E|-----------------------------|---------------------|---------------------|

                                                                    {F#]
                               co                          co        Ah ~~~~~~~~~~
                                                           G
e|--------------------------|---------------------------|--------------------------|
B|--------------------------|---------------------------|--------------------------|
G|----5b7--5--3--5--3-------|---------------------------|-----------[4]---(4)------|
D|---------------------5p3--|--5----5--(5)--0--3--0--3--|--5----x----3----(3)------|
A|--------------------------|---------------------------|------------2----(2)------|
E|--------------------------|---------------------------|--------------------------|

    ~~~~~~~~~~~~~~~~~~~~~~~~~~~~~

e|--------------------------|---------------------------|
B|--------------------------|---------------------------|
G|----(4)-------------------|--(4)----------------------|
D|----(3)-------------------|--(3)----------------------|
A|----(2)-------------------|--(2)----------------------|
E|--------------------------|---------------------------|




/    slide up
\    slide down
h    hammer-on
p    pull-off
mu   mute
pb   pre-bend
rpb  repeat pre-bend
co   cut off
pr   partial release
bss  bend slightly sharp
~~   vibrato
Ah   artificial harmonic


========================================================================  07 May 2010
Tap to rate this tab
 
# A B C D E F G H I J K L M N O P Q R S T U V W X Y Z