Song name
# A B C D E F G H I J K L M N O P Q R S T U V W X Y Z

John Mayalls Bluesbreakers - Double Crossing Time tab

this is the main riff and is played through out the song.

E-----------------------------------------|
B-----------------------------------------|
G-----------------------------------------|
D---------------3h5~~~~~--------3---------|
A-------------------------3/5------3/5/3--|
E-------6b---3----------------------------|

E-----------------------------------------|
B-----------------------------------------|
G-----------------------------------------|
D---------------3h5~~~~~--------3---------|
A-------------------------3/5------3/5----|
E-------6b---3--------------------------3-|

this is simple to play, but contains a fair amount of bends, hammer-ons and slides. 
is perfect for novices, it also has a slow tempo which is even better
Tap to rate this tab
# A B C D E F G H I J K L M N O P Q R S T U V W X Y Z