Song name
# A B C D E F G H I J K L M N O P Q R S T U V W X Y Z

John Mayer - Outside In The Underground tab

Hey all this is my first tab, and this tab is from an unreleased album I heard in live 
It should be 100% correct
Tuning: EADGBe (standard)


Intro / Verse

e:---------------------------|
B:-----10----------12--------|
G:--------7-----------12-----|
D:----------5------------10--|
A:--------------0~-----------|
D:--0~-----------------------|


"outside in the underground..."
e:-(8)-------|
B:--6-----8--|
G:--5-----7--|
D:--5-----7--|
A:-----------|
D:--5-----7--|


Verse part 2
first time solo and Low-Fi Masters

e:--------------------------------------------------------|
B:-----10----------12-----------10-------------10---------|
G:--------7-----------12-----------7--------------7-------|
D:----------5------------10----------(10)-----------(10)--|
A:--------------------------------------------------------|
D:--0~---------10~-----------9~------------10~------------|


second time solo

e:---------------------------------------------------------|
B:-----10------------10-----------10------------10---------|
G:--------7-------------7------------7-------------7-------|
D:----------(10)----------(10)---------(10)----------(10)--|
A:---------------------------------------------------------|
D:--0~-----------10~-----------9~-----------10~------------|


"outside in the underground..." to chorus...
e:-(8)------------1---|
B:--6-----8---8---1---|
G:--5-----7---7---3---|
D:--5-----7---7--(1)--|
A:--------------------|
D:--5-----7---8---1---|


Chorus

e:--3-0----8---8----1-----4---|
B:--1-1---10---8----1-----4---|
G:--0-0---10--10----3-----6---|
D:--3-3---(8)-(8)--(1)---(4)--|
A:----------------------------|
D:--3-3----8---8----1-----4---|


"it all comes down..."
e:--3---6----------|
B:--1---4---6---8--|
G:--0---X---5---7--|
D:--3---6---5---7--|
A:-----------------|
D:--3---6---5---7--|


"oh, I have a hundred lives..."
e:-------------------------------------------|
B:---------10---------1---------3---------8--|
G:-------7----------0---------2---------7----|
D:-----5----------2---------3---------7------|
A:-------------------------------------------|
D:--0~---------2~--------3~--------8~--------|
Tap to rate this tab
 
# A B C D E F G H I J K L M N O P Q R S T U V W X Y Z