Song name
# A B C D E F G H I J K L M N O P Q R S T U V W X Y Z

John Mayer - In Repair Acoustic tab

e:--------------------------------------------10----10-----------------------|
B:----------10--------------------------------10h12-10------------7----------|
G:-------7-----9p7---7h9--------------7-7--------------11--9---7h9-9p7---7---|
D:--7h9------------9-----9-9------7h9----------------------------------9---9-|
A:---------------------------------------------------------------------------|
E:---------------------------------------------------------------------------|

e:---------10-12/14-14\12-10-10p8------------------10-----------------------|
B:--10h12-------------------------12-12\10----------------------------------|
G:-----------------------------------------11-11\7----11\7------------------|
D:--------------------------------------------------------------------------|
A:--------------------------------------------------------------------------|
E:--------------------------------------------------------------------------|

e:----------------------------------8-7---------------------10---10-10------|
B:----------7-10h12--10-10h12--10-------10-8-/7h8p6---------10h12-----------|
G:------7h9--------11--------11---------------------9-7-7-------------------|
D:--7h9---------------------------------------------------------------------|
A:--------------------------------------------------------------------------|
E:--------------------------------------------------------------------------|

e:--------10--/14-10--------10----------------------------------------------|
B:--10-12-------------10-12----13p12-10-------------------------------------|
G:-------------------------------------------7-9-7--------------------------|
D:----------------------------------------/9-------9------------------------|
A:--------------------------------------------------------------------------|
E:--------------------------------------------------------------------------|

e:-----------10-13-12-10--------10------------------------------------------|
B:--10-10-12--------------10-12----13-12-10---------------------------------|
G:-------------------------------------------10\9-7--7h9--------------------|
D:-------------------------------------------------------9------------------|
A:--------------------------------------------------------------------------|
E:--------------------------------------------------------------------------|

e:--------13-12-10-------13-10--13-10---13-10---/15--13--10-----------------|
B:--10-10------------10-------10-----10------10-------------13--10----------|
G:--------------------------------------------------------------------------|
D:--------------------------------------------------------------------------|
A:--------------------------------------------------------------------------|
E:--------------------------------------------------------------------------|

e:--------------------------------------------------------------------------|
B:--------------------------------------------------------------------------|
G:--12-10-12-10-------------10-7-10---10------------------------------------|
D:--------------12------7-9---------7---------------------------9-----------|
A:-------------------/9------------------9---7---6----------6-9---9-6-------|
E:--------------------------------------------------------------------------|
Tap to rate this tab
# A B C D E F G H I J K L M N O P Q R S T U V W X Y Z