Song name
# A B C D E F G H I J K L M N O P Q R S T U V W X Y Z

John Mayer - Cant Take That Plane tab

Help us improve GuitareTab! Take a short survey!
-------------------------------------------------------------------------------
			     Cant Take That Plane - John Mayer
-------------------------------------------------------------------------------
Tabbed by:johnmayergal
Email:johnmayerrox@hotmail.com

Tuning:EADGBe

e|-----------------------------------------------------------------------------|
B|--------------8--------------------------------------------------------------|
G|-------9-------------------------------------------7---9-9-------7-9---------|
D|---------------------7---7---5-------------5---9-----------------------------|
A|--------------------------------------5h7------------------------------------|
E|-----------------------------------------------------------------------------|

e|---------------------------------------------------------------------------|
B|------11---9---7/-4--------------------------------------------------------|
G|------------------------------------------9--------------------------------|
D|-----------------------------------7h9-------------------------------------|
A|---------------------------5h7---------------------------------------------|
E|---------------------------------------------------------------------------|
Related for Cant Take That Plane tab