Guitaretab - guitar tabs
Song name
# A B C D E F G H I J K L M N O P Q R S T U V W X Y Z

John Mayer - On Top tab

pretty cool song please rate
i am sitting in school right now and this is on the radio.

verse
-------------------------------------------------------------------|
-------------------------------------------------------------------|
-----6-6-6-6---------4-4-4-4---------------------------------------|
-----6-6-6-6---------4-4-4-4------------3-3-3-3--------------------|
-----4-4-4-4---------2-2-2-2------------3-3-3-3--------------------|
----------------------------------------1-1-1-1--------------------|
[ Tab from: http://www.guitaretab.com/j/john-mayer/134806.html ]
Chorus
--4----2----------------4------------------------------------------|
--4----3----------------4------------------------------------------|
--5----4---1---6--------5--------4---------------------------------|
--6----4---2---6----3---6----7---4---------------------------------|
--6----2---2---4----3---6----7---2---------------------------------|
--4----2------------1---4----5-------------------------------------|
REPEAT FROM THE B THEN PLAY

-----------------------------------------------------------------------|
-----------------------------------------------------------------------|
---4----1----4---1---4--1----------------------------------------------|
---4----2----4---2---4--2-----3----------------------------------------|
---2----2----2---2---2--2-----3----------------------------------------|
------------------------------1----------------------------------------|
Related for On Top tab