Guitaretab - guitar tabs
Song name
# A B C D E F G H I J K L M N O P Q R S T U V W X Y Z

John Mayer - Vultures tab

JM  Vultures

Intro/Verse/Chorus | x=thumb slap | sb=slight | bend b=bend
E|---------------------------------------------------------------------|
B|---------------------------------------------------------------------|
G|------------13sb-(16)-----------------13-13b-------------------------|
D|-14sb-------14--------------14b-------14-14--------------------------|
A|-14sb-----------------16----14b----------------16--------------------|
E|-------x-------------------------x-----------x-----------------------|
For this riff, play with thumb and middle finger pinching the 2 strings.

Solo 1st Chorus
E|---------------------------------------------------------------------|
B|---------------------------------------------------------------------|
G|----------14~~----------------------14h16-14h16-14~~-----------------|
D|----14-16---------------------14-16------------------16p14-16----16\-|
A|-16------------------------16----------------------------------------|
E|---------------------------------------------------------------------|

Verse

Chorus
[ Tab from: http://www.guitaretab.com/j/john-mayer/139465.html ]
Solo | x=scrape
E|-------------------------------------------------------------------------|
B|-------------------------------------------------------------------------|
G|----16b-16b----------14b--------------14---16b-16b----14h16----14sb-16---|
D|---------------14-16-----16----16~-------------------x------16-----------|
A|----------------------------------------------------x--------------------|
E|---------------------------------------------------x---------------------|

E|-------------------------------------------------------------------------|
B|--------------------------14---17-----14---------------------------------|
G|----16b--16b--16b----16b-----------------16-14-----16b16-14--------------|
D|--------------------------------------------------------------16---------|
A|-------------------------------------------------------------------------|
E|-------------------------------------------------------------------------|

E|---------------------------------|
B|---------------------------------|
G|------14--16b16---14-------------|
D|-----x------------------16-16~---|
A|----x----------------------------|
E|---x-----------------------------|

Verse

Chorus

Outro
Related for Vultures tab