Guitaretab - guitar tabs
Song name
# A B C D E F G H I J K L M N O P Q R S T U V W X Y Z

John Mayer - Distance tab

Distance
transcribed by Catherine Gagné

Capo 4th fret

Intro/Verses/Chorus

e-----0--0--0--0--0-----0------0---|
b-----0--0--0--0--0-----1------1---|
g-----0--0--0--0--0-----0------0---|
d-----0--2--3--2--0-----0h2----3---|
a-----x--x--x--x--x---3-3------x---|
e---3-3--3--3--3--3----------1-1---|


Variation:

e-----0--0--0--0--0-----3-----3---|
b-----0--0--0--0--0-----1-----1---|
g-----0--0--0--0--0-----0-----0---|
d-----0--2--3--2--0-----2-----3---|
a-----x--x--x--x--x---3-3-----x---|
e---3-3--3--3--3--3---------1-1---|


"Is why I leave before.."

e---0---0---0---------0---|
b---6---6---8---0--0--3---|
g---7---5---0---0--0--0---|
d---7---x---x---0--2--3---|
a---5---7---8---x--x--x---|
e-------0-------3--3--3---|

[ Tab from: http://www.guitaretab.com/j/john-mayer/178118.html ]
Distance is the reason she and me don't really talk no more
It's written on my ticket information on the freezer door
Hey, I'm not sorry I got what came coming for me
It's only everything I wanted all life long
Love was made to devastate ?
I wish my love could stay around a little more

Distance is...
Distance
Distance is...
It's what it is
It's what it is now

Distance makes a woman want to hear 'I love you' more than once
If I could find the word that feels remotely like the feeling is
Hey, I'm still lucky I will not succumb to all this
I'll blame temptation by the women all my life
Cos love was made to devastate only closest friendships
Love will a find a love that's closest all the time

Distance is...
Distance
Distance is...
Distance

Is why I leave before I hear myself say goodbye again
Goodbye, goodbye

Distance makes a copy of my face that she will bend inside her dreams
The blood on all these clothes from the telephonic surgeries
Distance makes a man believe that loyalty is a thankless chore
Loyalty is the reason I leave semen on my hotel floor, yeah

Distance is...
Distance
Distance is...
It's what it is
It's what it is now

Lyrics taken from www.thejmtp.com
Related for Distance tab