Song name
# A B C D E F G H I J K L M N O P Q R S T U V W X Y Z

John Mayer - Everything Is Not Broken tab

Everything is not broken
transcribed by Catherine Gagné

!!ALL CREDIT TO THE ABOVE!!

Intro

e------------------------------------------------------------------|
b------------------------------------------------------------------|
g---------9h11-11-11--9h11-11-11--------------9-----9--9-----------|
d---9-----9-----------9------------(...)------9h11-11--9-----------|
a---9h11--------------------------------------------------9h11-----|
e---0--------------------------------------0-------------------0---|


First verse

e------------------------------------------------------ --------|
b-----------------10---9--10---9----9---(9)---9----9--- --------|
g---9--9---9--9----9---9---9---9----9--(11)---9----9--- ----9---|
d---9--9---9--9---11--11--11--11---11--(11)--11---11--- ----9---|
a--11--9--11--9----0---0---0---0----x---(x)---x----0--- ---11---|
e---0--0---0--0---------------------9---(9)---9-------- ----0---|


Second verse

e---------------------------------- ---------------------------- --------|
b------------------9--10---9--10--- ---10---9----9--10---------- --------|
g---9--9---9--9----9--11---9--11--- ---11--11---11--11---------- ----9---|
d---9--9---9--9----9---9---9---9--- ----9---9----9---9---(x2)--- ----9---|
a--11--9--11--9----0---0---0---0--- ----x---x----0---0---------- ---11---|
e---0--0---0--0-------------------- ----9---9------------------- ----0---|


"Mournings and funerals.."

e------- ------------------------------|
b---5--- ----------9-----------9---9---|
g---6--- ----------9-----------9---9---|
d---4--- ---9-----11---(...)--11--11---|
a---5--- ---9h11---0-----------x---0---|
e------- ---0------------------9-------|


"Everything will be fine.."

e--------------------|
b--------------------|
g----9---9-----------|
d----9--11-----------|  ends with (0.11.9.9.0.0)
a---11---9---(...)---|
e----0---------------|


That autumn leaves fall dry and sweet
Tells me everything is not broken
No everything is not broken
If everythings not fine
If everythings not fine

That nature rains on flames we made
Should tell you everything is not broken
No everything is not broken
If everythings not fine
If everythings not fine

And I will find the colours in my life
The places and times it was now

And I will walk outside on my own into the light
The kind of clarity that only comes to me on Sunday's shine
Sunday's shine

It tells me everything is not broken
No everything is not broken
If everythings is fine
And everything is fine
If everything is fine
If everthing is fine

(Lyrics taken from http://www.thejmtp.com)
Tap to rate this tab
# A B C D E F G H I J K L M N O P Q R S T U V W X Y Z