Guitaretab - guitar tabs
Song name
# A B C D E F G H I J K L M N O P Q R S T U V W X Y Z

John Mayer - Same Time Last Year tab

Same time last year
transcribed by Catherine Gagné

!!ALL CREDIT TO THE ABOVE!!

Capo 7th fret

Tuning note: This song is played in a variation of open E tuning.
The tuning is EBEF#Be and is achieved as follows:

                                                high e=e (no change)
                                                 B=B (no change) 
                              F#-----0---        G=F# (2nd fret on the newly tuned E string)
               E------0---    E---2------        D=E (5th fret on the newly tuned B string) 
B------0---    B---5------                       A=B (7th fret on low E)
E---7------                                      low E=E (no change)


Intro/Verse

e---------------------- ----------------------|
b---------------------- ----------------------|
f#--0-----5--5--3--2--- ---0-----5--5--0--0---|
e---0-5---0--2--0--0--- ---0-5---0--2--0--0---|
b---0-0---5--4--5--5--- ---0-0---5--4--x--x---|
e-----5---------------- -----5---------5--4---|

Chorus

e------------------------------------------------|
b---5--4---0--------------------5--4--5----------|
f#--0--0---0----------0--0--0---0--0--0----------|
e---5--5---0---(x3)---0--0--0---5--5--5---(x3)---|
b---0--0---x----------0--0--4---0--0--0----------|
e---x--x---4----------4--5-----------------------|

"Oooo..ooo"
[ Tab from: http://www.guitaretab.com/j/john-mayer/179347.html ]
e--------------------------------------------------|
b---0---0---0---0----------0---0---0---0---0---0---|
f#--2---0---3---0----------2---0---3---3---3---3---|
e---0---0---0---0---(x2)---0---0---0---0---0---0---|
b---2---1---3---2----------2---1---3---2---3---2---|
e--------------------------------------------------|

Interlude

e------2p0--0h2--0------2p0--0h2--0---------------------------------------------|
b------0----0----0------0----0----0--------4p0--0h4--0-----4p0--0h4--0----------|
f#-----2p0--0h2--0------2p0--0h2--0--------0----0----0-----0----0----0----------|
e------------------------------------------2p0--0h2--0-----2p0--0h4--0---(x4)---|
b---------------------------------------0----------------0----------------------|
e---0----------------0----------------------------------------------------------|


"I'm sad like a boy.."

e----------------------------------------------------------------|
b----------------------3--3---0----------------------------------|
f#--0-----5--5--3--2---0--0---3---2---0---0----------------------|
e---0-5---0--2--0--0---0--0---2---4---0---0---(back to chorus)---|
b---0-0---5--4--5--5---3--2---x---x---0---4----------------------|
e-----5-----------------------2---4---5--------------------------|


You know those days before i met you
well good cause i don't either
it's almost like they were meant to
make the whole thing sweeter

You think i'm just a boy who's
consumed by all his fears
the fact that you should have seen me
same time last year
same time last year
oh the same time last year

Living fifteen over
shortly over the nick of time
i'm sad like a boy
but I smile like a man
its the best way that I never understand

I wish I would have made it
I hate the view from here
I didn't think I'd think I'd saw my wife that summer
that same time last year
oh the same time last year
oh the same time last year
oh the same time last year
Related for Same Time Last Year tab