Song name
# A B C D E F G H I J K L M N O P Q R S T U V W X Y Z

John Mayer - Im Gonna Find Another You tab

Hello. First of all this is my first tab ever. This is not a real tab, that's not even
to complete, but i hope that someone can be inspired by this and tab the whole solo. Tell
wrong with the tab or add more parts of the solo PLEASE :)


|----------------------------------------------------------------------------------|
|----------10~----12b14--12------10-12b14--12b14--10h12b14-10~--12b14-14r12--------|
|-----9-11------------------9-11---------------------------------------------11----|
|--/11-----------------------------------------------------------------------------|
|----------------------------------------------------------------------------------|
|----------------------------------------------------------------------------------|

---------------------------|
12-------------10h12b14----|
 11-----9-11---------------|
---------------------------|
---------------------------|
---------------------------|


|-------------9--12b14-12--9-12---------------------17/0-----------------------------|
|-10----12b14------------------12b14----12----10----17/0-----------------------------|
|------------------------------------11----11----------------------------------------|
|------------------------------------------------------------------------------------|
|------------------------------------------------------------------------------------|
|------------------------------------------------------------------------------------|


This is the beginning of the first solo played by David Ryan (it's not complete)

Then John Mayer starts playing his part:

|------------------------------------------------------------------------------------|
|--------10-10-10------10-10----12b14r12b14------------------------------------------|
|---/12------------/12-------12------------------------------------------------------|
|------------------------------------------------------------------------------------|
|------------------------------------------------------------------------------------|
|------------------------------------------------------------------------------------|

Once again it's incomplete.

I hope that someone can grab this tab and tab the whole solo, i'd be really really grateful.

Cheers from Portugal.
Tap to rate this tab
# A B C D E F G H I J K L M N O P Q R S T U V W X Y Z